Night Beats

The Other Side

Night Beats

tabs

by  HUGO_RODRIGUES

save to print version add songbook text version e-mail correct tuner
chordsukulelecavacokeyboardtabbassdrumsharmonicaflute Guitar Pro
close

there isn't a video lesson for this song

chords

The Other Side

	  		really easy song. just strum some power chords and fool around with Em. 

-=Chorus=- 

E|--------------------------| 
B|--------------------------| 
G|--------------------------| 
D|--7--7--5--5--3--3--2--2--| 
A|--7--7--5--5--3--3--2--2--| 
E|--5--5--3--3--1--1--0--0--| 

E|-----------| 
B|-----------| 
G|-----------| 
D|--2--3--2--| 
A|--2--3--2--| 
E|--0--1--0--| 

-=verse=- 

E|-----------------------------------------------| 
B|-----------------------------------------------| 
G|-----------------------------------------------| 
D|--2--2--2--2--2--2-----------------------------| 
A|-----------------------------------------------| 
E|-----------------------------------------------| 

and sprinkle in some of this 

D|--2h3h2h3h2-- 

or this 

D|--1/2-- 

or both, or just mess around with Em (which is 022000) 
		  

auto scroll beats size up size down change color hide chords drawings
tab show chords e-chords YouTube Clip e-chords hide all tabs e-chords go to top tab

share