Nickelback

Too Bad Tab

Nickelback

Difficulty: BeginnerBeginner

by meta11eir0

tuner correct add songbook print version text version save to e-mail
chordsukuleleukulelecavacokeyboardtabbassdrummharmonicsflute Guitar Pro
close

there isn't a video lesson for this song

request
chords

Too Bad

Year: 2001 - Album: Silver Side Up

(Kroeger / Nickelback)

Key:  C More
Too Bad Key GG
Too Bad Key G#G#
Too Bad Key AA
Too Bad Key A#A#(one step down)
Too Bad Key BB(half step down)
Too Bad Key CC(original key)
Too Bad Key C#C#(half step up)
Too Bad Key DD(one step up)
Too Bad Key D#D#
Too Bad Key EE
Too Bad Key FF
Too Bad Key F#F#
  		Nickelback 
Too Bad 
 
Afinašao:(C,G,C,F,A,D) 
 
Intro/Versos: 
D|--------------------|-------------------|-------------------| 
A|--------------------|-------------------|-------------------| 
F|*-2---2---2---2-----|-2---2---2---2-----|-2---2---2---2----*| 
C|*---0---0---0---0---|---0---0---0---0---|---0---0---0---0--*| 
G|--------------------|-------------------|-------------------| 
C|--------------------|-------------------|-------------------| 
 
 
Refrao: 
D|--------------------|-------------------|-------------------------(x2)| 
A|--------------------|-------------------|-----------------------------| 
F|*-------------------|-------------------|----------------------------*| 
C|*-8-8-8-8-8-8-8-8---|--3-3-3-3-3-3-3-3--|-3h5-5--3h5-5--3h5-5--3h5-5-*| 
G|--8-8-8-8-8-8-8-8---|--3-3-3-3-3-3-3-3--|-3h5-5--3h5-5--3h5-5--3h5-5--| 
C|--8-8-8-8-8-8-8-8---|--3-3-3-3-3-3-3-3--|-3h5-5--3h5-5--3h5-5--3h5-5--| 
 
 
E faša esse riff depois do refrao. 
D|--------------------| 
A|--------------------| 
F|--14\12----17\14----| 
C|--------------------| 
G|--------------------| 
C|--------------------| 
 
Essa musica Ú legal e simples mas devo pedir desculpas por nao ter o solo dessa musica. 

	  

Search Paypal
auto scroll beats size up size down change color hide chords drawings
tab show chords e-chords YouTube Clip e-chords hide all tabs e-chords go to top tab

share with facebook