Nicho Hinojosa

Ojalá

Nicho Hinojosa

tabs Easy easy

by  XG4EVER

save to print version add songbook text version e-mail correct tuner
chordsukulelecavacokeyboardtabbassdrumsharmonicaflute Guitar Pro
close

there isn't a video lesson for this song

chords

Ojalá

	  		 
NICHO HINOJOSA-OJALA 
EN EL BAR{2002} 
    Am       Am7M       Am7    Am7M     
6 -----------------------------------0H2---- 
5 --0--------0--------0--------0------------ 
4 ----2--------2--------2--------2---------- 
3 ------2--------1--------0--------1--------- 
2 --------1--------1--------1--------1-------- 
1 ----------0--------0--------0--------0-------- 
 
 
   Am       Am7M       Am7      Am7M     
6 -----------------------------------0H2---- 
5 --0--------0--------0--------0------------ 
4 ----2--------2--------2--------2---------- 
3 ------2--------1--------0--------1--------- 
2 --------1--------1--------1--------1-------- 
1 ----------0--------0--------0---------------- 
 
    Am        Am7M        Am7       Am7M     
6 ------------------------------------------ 
5 --0---------0---------0---------0--------- 
4 -----2---------2---------2---------2------- 
3 -------2---------1---------0---------1----- 
2 ----------1---------1---------1---------1--- 
1 ------------0---------0---------0---------0- 
         OJALA QUE LAS HOJAS NO EL  
 
    Am        Am7M        Am7     Am7M     
6 -------------------------------------------0H2- 
5 --0---------0---------0---------0-------------- 
4 ----2---------2---------2---------2------------ 
3 ------2---------1---------0---------1---------- 
2 --------1---------1---------1---------1-------- 
1 ----------0---------0---------0---------0------ 
    CUERPO CUANDO CAIGAN 
 
  G         G         G         G     
6 -3--------3---------3---------3------------ 
5 -------------------------------------------- 
4 ----0---------0---------0---------0---------- 
3 ------0---------0---------0---------0-------- 
2 --------3---------3---------3---------3------ 
1 ----------3---------3---------3---------3----- 
          PARA QUE NO LAS  PUEDAS CONVERTIR EN  
 
    Am        Am7M        Am7    Am7M     
6 -------------------------------------------0H2 
5 --0---------0---------0---------0------------- 
4 ----2---------2---------2---------2----------- 
3 ------2---------1---------0---------1--------- 
2 --------1---------1---------1---------1------- 
1 ----------0---------0---------0---------0----- 
            EN CRISTAL 
 
  G         G         E         E     
6 -3--------3---------0---------0------------ 
5 -------------------------------------------- 
4 ----0---------0---------2---------2---------- 
3 ------0---------0---------1---------1-------- 
2 --------3---------3---------0---------0------ 
1 ----------3---------3---------0---------0---- 
         OJALA QUE LA LLUVIA DEJE DE SER 
    Am        C#m        F#m        F#m    
6 -----------4----------2----------2----------- 
5 --0------------------------------------------- 
4 ----2---------6-------- -4----------4--------- 
3 ------2---------6----------2----------2------- 
2 --------1---------5----------2----------2----- 
1 ----------0---------4----------2----------2--- 
    MILAGRO QUE VAGA POR TU CUERPO 
 
    C#m        C#        C#m        C#m  
6 ----------------------------------------------- 
5 --4----------4----------4----------4----------- 
4 ----6----------6----------6----------6--------- 
3 ------6----------6----------6----------6------- 
2 --------5----------6----------5----------5----- 
1 ----------4----------4----------4----------4--- 
            OJALA QUE EL DESEO SE VAYA DETRAS 
 
    F#m        B7 4 9     B7         B7    
6 ------------------------------------x--- 
5 --4----------2-----------2----------2--- 
4 ----4----------2-----------4--------4--- 
3 ------2----------2-----------2------2--- 
2 --------2----------2-----------4----4--- 
1 ----------2----------2-----------2--2--- 
   TI 
 
    Am        Am7M     Am       E    
6 -X---------X---------X--------X-------------- 
5 --0---------0---------0------------------------ 
4 ----2---------2---------2---------2------------ 
3 ------2---------1---------2---------1---------- 
2 --------1---------1---------1---------0-------- 
1 ----------0---------0---------0---------0------ 
      OJALA QUE LA TIERRA NO TE BESE         
 
    Am        Am7M     Am7       Am7M     
6 ----------------------------------------------- 
5 --0---------0---------0---------0-------------- 
4 ----2---------2---------2---------2------------ 
3 ------2---------1---------0---------1---------- 
2 --------1---------1---------1---------1-------- 
1 ----------0---------0---------0---------0------ 
     LOS PASOS 
 
    Am        Am7M        Am7    Am7M     
6 -------------------------------------------0H2- 
5 --0---------0---------0---------0-------------- 
4 ----2---------2---------2---------2------------ 
3 ------2---------1---------0---------1---------- 
2 --------1---------1---------1---------1-------- 
1 ----------0---------0---------0---------0------ 
      OJALA SE TE ACABE LA MIRADA CONSTANTE 
 
   G         G         G         G     
6 -3---------3---------3---------3------------ 
5 -------------------------------------------- 
4 ---0---------0---------0---------0---------- 
3 -----0---------0---------0---------0-------- 
2 -------3---------3---------3---------3------ 
1 ---------3---------3---------3---------3---- 
     LA PALABRA PRECISA, LA SONRISA PERFECTA 
 
    C        C            
6 --------------------- 
5 --3----------3------- 
4 ----2----------2------ 
3 ------0----------0----- 
2 --------1----------1---- 
1 ----------3----------3--- 
       OJALA PASE ALGO...  
 
 D           G              B7               Em  
ALGO QUE TE BORRE DE PRONTO, UNA LUZ SSEGADORA  
                C 
UN DISPARO DE NIEVE 
               D                   G 
OJALA POR LO MENOS QUE ME LLEVE LA MUERTE 
                Em                B7                        
PARA NO VERTE TANTO, PARA NO VERTE SIEMPRE 
         C 
EN TODOS LOS SEGUN... 
 
   Am        Am7M        Am7       Am7M     
6 -------------------------------------------0H2 
5 --0---------0---------0---------0------------- 
4 ----2---------2---------2---------2----------- 
3 ------2---------1---------0---------1--------- 
2 --------1---------1---------1---------1------- 
1 ----------0---------0---------0---------0----- 
    ...DOS 
 
  G         G         G         G     
6 -3---------3---------3---------3------------ 
5 -------------------------------------------- 
4 ---0---------0---------0---------0---------- 
3 -----0---------0---------0---------0-------- 
2 -------3---------3---------3---------3------ 
1 ---------3---------3---------3---------3---- 
           EN    TODAS   LAS       VISIONES 
 
   Cm         Cm         D        D4 D D D9 D9 D D 
6 ------------------------------------------------ 
5 -3----------3--------------------0-0-0--0-0-0-0-- 
4 ---5----------5--------0---------0-0-0--0-0-0-0-- 
3 -----5----------5---------2------2-2-2--2-2-2-2-- 
2 -------4----------4---------3----3-3-3--3-3-3-3-- 
1 ---------3----------3---------2--3H2-2--0-0H2-2-- 
           OJALA QUE NO PUEDA               
 
    Am        Am7M       Am7     Am7M     
6 -------------------------------------------- 
5 --0---------0---------0---------0----------- 
4 ----2---------2---------2---------2--------- 
3 ------2---------1---------0---------1------- 
2 --------1---------1---------1---------1----- 
1 ----------0---------0---------0---------0--- 
            NI EN CANCIONES 
 
 
    Am        Am7M        Am7     Am7M    
6 -------------------------------------------0H2- 
5 --0---------0---------0---------0-------------- 
4 ----2---------2---------2---------2------------ 
3 ------2---------1---------0---------1---------- 
2 --------1---------1---------1---------1-------- 
1 ----------0---------0---------0---------0------ 
 
 
    Am        Am7M        Am7     Am7M     
6 ------------------------------------------ 
5 --0---------0---------0---------0--------- 
4 ----2---------2---------2---------2------- 
3 ------2---------1---------0---------1----- 
2 --------1---------1---------1---------1--- 
1 ----------0---------0---------0---------0- 
            OJALA QUE LA AURORA NO DE GRITOS 
 
    Am        Am7M        Am7     Am7M     
6 -------------------------------------------0H2- 
5 --0---------0---------0---------0-------------- 
4 ----2---------2---------2---------2------------ 
3 ------2---------1---------0---------1---------- 
2 --------1---------1---------1---------1-------- 
1 ----------0---------0---------0---------0------ 
     QUE CAIGAN EN MI ESPALDA 
 
   G         G         G         G     
6 -3---------3---------3---------3------------ 
5 -------------------------------------------- 
4 ---0---------0---------0---------0---------- 
3 -----0---------0---------0---------0-------- 
2 -------3---------3---------3---------3------ 
1 ---------3---------3---------3---------3----- 
            OJALA Q TU NOMBRE SE LE OLVIDE  
 
    Am        Am7M        Am7   Am7M     
6 -------------------------------------------0H2 
5 --0---------0---------0---------0------------- 
4 ----2---------2---------2---------2----------- 
3 ------2---------1---------0---------1--------- 
2 --------1---------1---------1---------1------- 
1 ----------0---------0---------0---------0----- 
       A ESTA VOZ 
 
  G         G         E         E     
6 -3---------3---------0---------0------------ 
5 -------------------------------------------- 
4 ---0---------0---------2---------2---------- 
3 -----0---------0---------1---------1-------- 
2 -------3---------3---------0---------0------ 
1 ---------3---------3---------0---------0---- 
            OJALA QUE LAS PAREDES NO RETENGAN TU 
 
    Am        C#m        F#m        F#m    
6 ------------4----------2----------2----------- 
5 --0------------------------------------------- 
4 ----2---------6----------4----------4--------- 
3 ------2---------6----------2----------2------- 
2 --------1---------5----------2----------2----- 
1 ----------0---------4----------2----------2--- 
         RUIDO DE CAMINO CANSADO 
 
    C#m        C#        C#m        C#m  
6 ----------------------------------------------- 
5 --4----------4----------4----------4----------- 
4 ----6----------6----------6----------6--------- 
3 ------6----------6----------6----------6------- 
2 --------5----------6----------5----------5----- 
1 ----------4----------4----------4----------4--- 
             OJALA QUE LA LUNA PUEDA SALIR SIN TI 
 
    F#m        B7 4 9    B7         B7    
6 ---------------------------------------- 
5 --4----------2-----------2----------2--- 
4 ----4----------2-----------4--------4--- 
3 ------2----------2-----------2------2--- 
2 --------2----------2-----------4----4--- 
1 ----------2----------2-----------2--2---  
    TI 
 
    Am        Am7M        Am       E    
6 --------------------------------0-------------- 
5 --0---------0---------0------------------------ 
4 ----2---------2---------2---------2------------ 
3 ------2---------1---------2---------1---------- 
2 --------1---------1---------1---------0-------- 
1 ----------0---------0---------0---------0------ 
            A TU VIEJO GOBIERNO, DE DIFUNTOS Y... 
    Am        Am7M        Am7     Am7M     
6 ----------------------------------------------- 
5 --0---------0---------0---------0-------------- 
4 ----2---------2---------2---------2------------ 
3 ------2---------1---------0---------1---------- 
2 --------1---------1---------1---------1-------- 
1 ----------0---------0---------0---------0------ 
     FLOREES 
 
    Am       Am7M        Am7     Am7M    
6 ----------------------------------------------- 
5 --0---------0---------0---------0-------------- 
4 ----2---------2---------2---------2------------ 
3 ------2---------1---------0---------1---------- 
2 --------1---------1---------1---------1-------- 
1 ----------0---------0---------0---------0------ 
           OJALA SE TE ACABE LA MIRADA CONSTANTE 
 
   G         G         G          G     
6 -3---------3---------3----------3---------- 
5 ------------------------------------0-1-2---- 
4 ---0---------0---------0------------------- 
3 -----0---------0---------0----------------- 
2 -------3---------3---------3--------------- 
1 ---------3---------3---------3------------- 
       LA PALABRA PRECISA, LA SONRISA PER... 
 
    C         C            
6 ----------------------- 
5 --3----------3--------- 
4 ----2----------2------- 
3 ------0----------0----- 
2 --------1----------1--- 
1 ----------3----------3- 
   ...FECTA    OJALA PASE  
 
 D                 G        B7            Em  
ALGO QUE TE BORRE DE PRONTO, UNA LUZ SEGADORA  
                C 
UN DISPARO DE NIEVE 
               D                   G 
OJALA POR LO MENOS QUE ME LLEVE LA MUERTE 
               Em                   B7  
PARA NO VERTE TANTO, PARA NO VERTE SIEMPRE 
         C 
EN TODOS LOS SEGUN... 
 
   Am        Am7M        Am7     Am7M     
6 -------------------------------------------0H2 
5 --0---------0---------0---------0------------- 
4 ----2---------2---------2---------2----------- 
3 ------2---------1---------0---------1--------- 
2 --------1---------1---------1---------1------- 
1 ----------0---------0---------0---------0----- 
    ...DOS 
 
  G         G         G         G     
6 -3---------3---------3---------3------------ 
5 -------------------------------------------- 
4 ---0---------0---------0---------0---------- 
3 -----0---------0---------0---------0-------- 
2 -------3---------3---------3---------3------ 
1 ---------3---------3---------3---------3---- 
           EN TODAS LAS VISIONES 
 
   Cm         Cm         D        D4 D D  D9  D D 
6 ----------------------------------------------- 
5 -3----------3--------------------0-0-0--0-0-0-0-- 
4 ---5----------5--------0---------0-0-0--0-0-0-0-- 
3 -----5----------5---------2------2-2-2--2-2-2-2-- 
2 -------4----------4---------3----3-3-3--3-3-3-3-- 
1 ---------3----------3---------2--3h2-2--0-0h2-2--  
                 OJALA QUE NO PUEDA             
TOCARTE NI EN CANCIONES 
OUTRO 
D-D-G-Em-C  
 
 
{G}= 3*0033 
 
DUDAS O CORRECCIONES [email protected] 
Está canción va dedicada a la persona que mas quiero 
Ingrid Piliado O. Donde quiera que estes siempre estare 
pensando en ti, en todos los segundos, OJALA QUE NOS 
VOLVAMOS A VER... 

		  

Full key step upFull key step up
Half key step upHalf key step up
Half key step downHalf key step down
Full key step downFull key step down
hide glossary

See also:

tabs Maná - Mariposa traicionera tabs Camila - Todo Cambio tabs Maná - Te solté la Rienda tabs Maná - No ha parado de llover tabs Maná - Baila morena tabs Maná - En el muelle de San Blás
e-chords

Other versions:

tabs Nicho Hinojosa - Ojalá
auto scroll beats size up size down change color hide chords drawings
tab show chords e-chords YouTube Clip e-chords hide all tabs e-chords go to top tab

share