New Years Day

Epidemic

New Years Day

tabs

by  GUSTSILVA

save to print version add songbook text version e-mail correct tuner
chordsukulelecavacokeyboardtabbassdrumsharmonicaflute Guitar Pro
close

there isn't a video lesson for this song

chords

Epidemic

	  		


Intro: 
B |---------------------------------------------------------------------------| 
F#|---------------------------------------------------------------------------| 
D |---------------------------------------------------------------------------| 
A |---0-2-0--3-0---  |-2-0-2-0--3-0-|    ---2-0-2-0---5-5-5-5-----------------| x2 
E |---0-2-0--3-0---  |-2-0-2-0--3-0-| x2 ---2-0-2-0---4-4-4-4-----------------| 
A |---0-2-0--3-0---  |-2-0-2-0--3-0-|    ---2-0-2-0---------------------------| 
          x    x             x    x               x 

verse 1: x2 
B |---------------------------------------------------------------------------| 
F#|---------------------------------------------------------------------------| 
D |---------------------------------------------------------------------------| 
A |---0-0-0---0---0-0---0-0----------0-0---0---0-0----------------------------|  
E |---0-0-0---0---0-0---0-0----------0-0---0---0-0----------------------------| 
A |---0-0-0---0---0-0---0-0----------0-0---0---0-0----------------------------| 
      * * *   *   * *   * *          * *   *   * * 
B |---------------------------------------------------------------------------| 
F#|---------------------------------------------------------------------------| 
D |---------------------------------------------------------------------------| 
A |---3-3-3---3---3-3---3-3----------6-6---6---6-6----------------------------|  
E |---3-3-3---3---3-3---3-3----------6-6---6---6-6----------------------------| 
A |---3-3-3---3---3-3---3-3----------6-6---6---6-6----------------------------| 
      * * *   *   * *   * *          * *   *   * * 


Pre-Chorus 1: 
B |---------------------------------------------------------------------------| 
F#|---------------------------------------------------------------------------| 
D |---------------------------------------------------------------------------| 
A |---0-0-0-0-3-3-3-3-3-/8-8-8-8--5-5-5-5-5-----------------------------------|  
E |---0-0-0-0-3-3-3-3-3-/8-8-8-8--5-5-5-5-5-----------------------------------| 
A |---0-0-0-0-3-3-3-3-3-/8-8-8-8--5-5-5-5-5-----------------------------------| 

B |---------------------------------------------------------------------------| 
F#|---------------------------------------------------------------------------| 
D |---------------------------------------------------------------------------| 
A |---0-0-0-0-3-3-3-3-3-/8-8-8-8---5-5-5-5-5-5-5-5----------------------------|  
E |---0-0-0-0-3-3-3-3-3-/8-8-8-8---4-4-4-4-4-4-4-4----------------------------| 
A |---0-0-0-0-3-3-3-3-3-/8-8-8-8----------------------------------------------| 


Chorus 1: x2 
B |---------------------------------------------------------------------------| 
F#|---------------------------------------------------------------------------| 
D |-----------------------------------3-3-3-----------------------------------| 
A |---0-2-0--3-0----2-0-2-0--3-0----0-3-3-3----5-5-5-5-5-5--------------------| 
E |---0-2-0--3-0----2-0-2-0--3-0----0-1-1-1----5-5-5-5-5-5--------------------| 
A |---0-2-0--3-0----2-0-2-0--3-0----0----------5-5-5-5-5-5--------------------| 
          x    x          x    x    *             

B |---------------------------------------------------------------------------| 
F#|---------------------------------------------------------------------------| 
D |---------------------------------------------------------------------------| 
A |---0-2-0--3-0----2-0-2-0--3-0----0-3-3-3----7-7-7-7-7-7--------------------| 
E |---0-2-0--3-0----2-0-2-0--3-0----0-3-3-3----7-7-7-7-7-7--------------------| 
A |---0-2-0--3-0----2-0-2-0--3-0----0-3-3-3----7-7-7-7-7-7--------------------| 
          x    x          x    x    *             


verse 2: x2 
B |---------------------------------------------------------------------------| 
F#|---------------------------------------------------------------------------| 
D |---------------------------------------------------------------------------| 
A |---0-0-0---0---0-0---0-0----------0-0---0---0-0----------------------------|  
E |---0-0-0---0---0-0---0-0----------0-0---0---0-0----------------------------| 
A |---0-0-0---0---0-0---0-0----------0-0---0---0-0----------------------------| 
      * * *   *   * *   * *          * *   *   * * 
B |---------------------------------------------------------------------------| 
F#|---------------------------------------------------------------------------| 
D |---------------------------------------------------------------------------| 
A |---3-3-3---3---3-3---3-3----------6-6---6---6-6----------------------------|  
E |---3-3-3---3---3-3---3-3----------6-6---6---6-6----------------------------| 
A |---3-3-3---3---3-3---3-3----------6-6---6---6-6----------------------------| 
      * * *   *   * *   * *          * *   *   * * 


Pre-Chorus 2: 
B |---------------------------------------------------------------------------| 
F#|---------------------------------------------------------------------------| 
D |---------------------------------------------------------------------------| 
A |---0-0-0-0-3-3-3-3-3-/8-8-8-8--5-5-5-5-5-----------------------------------|  
E |---0-0-0-0-3-3-3-3-3-/8-8-8-8--5-5-5-5-5-----------------------------------| 
A |---0-0-0-0-3-3-3-3-3-/8-8-8-8--5-5-5-5-5-----------------------------------| 

B |---------------------------------------------------------------------------| 
F#|---------------------------------------------------------------------------| 
D |---------------------------------------------------------------------------| 
A |---0-0-0-0-3-3-3-3-3-/8-8-8-8---5-5-5-5-5-5-5-5----------------------------|  
E |---0-0-0-0-3-3-3-3-3-/8-8-8-8---4-4-4-4-4-4-4-4----------------------------| 
A |---0-0-0-0-3-3-3-3-3-/8-8-8-8----------------------------------------------| 


Chorus 2: x2 
B |---------------------------------------------------------------------------| 
F#|---------------------------------------------------------------------------| 
D |-----------------------------------3-3-3-----------------------------------| 
A |---0-2-0--3-0----2-0-2-0--3-0----0-3-3-3----5-5-5-5-5-5--------------------| 
E |---0-2-0--3-0----2-0-2-0--3-0----0-1-1-1----5-5-5-5-5-5--------------------| 
A |---0-2-0--3-0----2-0-2-0--3-0----0----------5-5-5-5-5-5--------------------| 
          x    x          x    x    *             

B |---------------------------------------------------------------------------| 
F#|---------------------------------------------------------------------------| 
D |---------------------------------------------------------------------------| 
A |---0-2-0--3-0----2-0-2-0--3-0----0-3-3-3----7-7-7-7-7-7--------------------| 
E |---0-2-0--3-0----2-0-2-0--3-0----0-3-3-3----7-7-7-7-7-7--------------------| 
A |---0-2-0--3-0----2-0-2-0--3-0----0-3-3-3----7-7-7-7-7-7--------------------| 
          x    x          x    x    *             


Bridge: 
Part 1 
B |---------------------------------------------------------------------------| 
F#|---------------------------------------------------------------------------| 
D |---3-3-3-3--/5-5-5-5-5-----------------------------------------------------| 
A |---3-3-3-3--/5-5-5-5-5-----------------------------------------------------|  
E |---1-1-1-1--/3-3-3-3-3------------10-------------------------10----13\-----| 
A |-------------------------0-0---12----12---10h12-----0-0---12----12---------| 
                            x x                        x x 
Part 2 
B |---------------------------------------------------------------------------| 
F#|---------------------------------------------------------------------------| 
D |---3-3-3-3-----------------------------------------------------------------| 
A |---3-3-3-3--5-5-5-5-5------------------------------------------------------|  
E |---1-1-1-1--5-5-5-5-5------------------------------------------------------| 
A |------------5-5-5-5-5---0-0---1-0-0--3-0-0--1-0-0-0------------------------| 
                           x x     x x    x x    x  
Part 1 
B |---------------------------------------------------------------------------| 
F#|---------------------------------------------------------------------------| 
D |---3-3-3-3--/5-5-5-5-5-----------------------------------------------------| 
A |---3-3-3-3--/5-5-5-5-5-----------------------------------------------------|  
E |---1-1-1-1--/3-3-3-3-3------------10-------------------------10----13\-----| 
A |-------------------------0-0---12----12---10h12-----0-0---12----12---------| 
                            x x                        x x 
Part 3 
B |---------------------------------------------------------------------------| 
F#|---------------------------------------------------------------------------| 
D |---3-3-3-3-3---5-5-5-5-5---5-5-5-5-5-5-5-5-5-5-----------------------------| 
A |---3-3-3-3-3---5-5-5-5-5---4-4-4-4-4-4-4-4-4-4-----------------------------|  
E |---1-1-1-1-1---3-3-3-3-3---------------------------------------------------| 
A |---------------------------------------------------------------------------| 



Pre-Chorus 3: (Variation) 
B |---------------------------------------------------------------------------| 
F#|-----------------------------------------------------------3-3-3-----------| 
D |-----------------------------------------------------------3-3-3-----------| 
A |-----------------------------------------------------------3-3-3-----------| 
E |---------------------------------------------------------------------------| 
A |---0-2-0--3-0----2-0-2-0--3-0----2-0-2-0--3-0----2-0-2-0-------------------| 
          x    x          x    x                              + + +          


Chorus 3: x2 
B |---------------------------------------------------------------------------| 
F#|---------------------------------------------------------------------------| 
D |-----------------------------------3-3-3-----------------------------------| 
A |---0-2-0--3-0----2-0-2-0--3-0----0-3-3-3----5-5-5-5-5-5--------------------| 
E |---0-2-0--3-0----2-0-2-0--3-0----0-1-1-1----5-5-5-5-5-5--------------------| 
A |---0-2-0--3-0----2-0-2-0--3-0----0----------5-5-5-5-5-5--------------------| 
          x    x          x    x    *             

B |---------------------------------------------------------------------------| 
F#|---------------------------------------------------------------------------| 
D |---------------------------------------------------------------------------| 
A |---0-2-0--3-0----2-0-2-0--3-0----0-3-3-3----7-7-7-7-7-7--------------------| 
E |---0-2-0--3-0----2-0-2-0--3-0----0-3-3-3----7-7-7-7-7-7--------------------| 
A |---0-2-0--3-0----2-0-2-0--3-0----0-3-3-3----7-7-7-7-7-7--------------------| 
          x    x          x    x    *             


Outro: 
B |----------------------------------------------------------------|     |-----| 
F#|----------------------------------------------------------------|     |-----| 
D |----------------------------------------------------------------|     |-----| 
A |---0-2-0--3-0---  |-2-0-2-0--3-0-|    ---2-0-2-0---5-5-5-5------| x2  |-----| 
E |---0-2-0--3-0---  |-2-0-2-0--3-0-| x2 ---2-0-2-0---4-4-4-4------|     |-----| 
A |---0-2-0--3-0---  |-2-0-2-0--3-0-|    ---2-0-2-0----------------|     |--0--| (let ring) 
          x    x             x    x               x 
                          
************************************ 
| *   palm mute 
| /   slide up 
| \   slide down 
| h   hammer-on 
| p   pull-off 
| ~   vibrato 
| +   harmonic 
| x   Mute note 
| b   Bend 
| pb  Pre-bend 
| br  Bend release 
| pbr Pre-bend release 
| brb Bend release bend 

************************************ 
		  

auto scroll beats size up size down change color hide chords drawings
tab show chords e-chords YouTube Clip e-chords hide all tabs e-chords go to top tab

share