Needtobreathe

Dont Wait For Daylight

Needtobreathe

tabs Advanced advanced

by  LUCICAMARGO

save to print version add songbook text version e-mail correct tuner
chordsukulelecavacokeyboardtabbassdrumsharmonicaflute Guitar Pro
close

there isn't a video lesson for this song

chords

Dont Wait For Daylight

	  		Intro: 
(guitarra 1) 
E|-10-10-10-10-10-10-10-10-------10-10-10-10-10-10-10-10---------------------| 
B|-10-10-10-10-7--7--7--7--7-7-710-10-10-10-7--7--7--7--7-7-7-7-------------| 
G|-------------------------9-9-9------------------------9-9-9---9-7-9-7----| 
D|---------------------------------------------------------------------------| 
A|---------------------------------------------------------------------------| 
E|---------------------------------------------------------------------------| 

E|--/10-10-10-10-10-10-10-10-------------------------------------------------| 
B|--/10-10-10-10-7--7--7--7--7-7-7-7-7-7-7-----------------------------------| 
G|---------------------------9-9-9-9-9-9-9-----------------------------------| 
D|---------------------------------------------------------------------------| 
A|---------------------------------------------------------------------------| 
E|---------------------------------------------------------------------------| 
(guitarra 2) 
E|--------------------------------| 
B|-------------+7+(50-100%volume)-| 
G|--------------------------------| 
D|--+5+(0-50%volume)--------------| 
A|--------------------------------| 
E|--------------------------------| 

E|-----------------------------------------------------------------| 
B|-----------------------------------------------------------------| 
G|-----------------------------------------------------------------| 
D|-5-5-5-5-5-5-5-5-4-4-4-4-4-4-4-4-7-7-7-7-7-7-7-7-7-7-7-7-7-7-7-7-| 
A|-5-5-5-5-5-5-5-5-4-4-4-4-4-4-4-4-7-7-7-7-7-7-7-7-7-7-7-7-7-7-7-7-| 
E|-3-3-3-3-3-3-3-3-2-2-2-2-2-2-2-2-5-5-5-5-5-5-5-5-5-5-5-5-5-5-5-5-| 

E|---------------------------------------------------------------------------| 
B|---------------------------------------------------------------------------| 
G|---------------------------------------------------------------------------| 
D|-5-5-5-5-5-5-5-5-5-4-4-4-4-4-4-4-4-7-7-7-7-7-7-7-7-7-7-7-7-7-8-8-8-8-9~~--| 
A|-5-5-5-5-5-5-5-5-5-4-4-4-4-4-4-4-4-7-7-7-7-7-7-7-7-7-7-7-7-7-8-8-8-8-9~~--| 
E|-3-3-3-3-3-3-3-3-3-2-2-2-2-2-2-2-2-5-5-5-5-5-5-5-5-5-5-5-5-5-6-6-6-6-7~~--| 

Verso: 
(guitarra 1) 
E|--------------------------------| 
B|-----3-3--3---5--5--5----------| 
G|-----4-4--4---6--6--6----------| 
D|------------------------play 2x-| 
A|-2-2-----------4--4-------------| 
E|--------------------------------| 

E|-----------------------------------------| 
B|-----------------------------------------| 
G|-----4--4-4--2--2--2-----6-6-6-6-6-6-6---| 
D|-----5--5-5--4--4--4-----7-7-7-7-7-7-7---| 
A|-----------------------------------------| 
E|-3-3----------2---2--5-5-----------------| 
(guitarra 2) 
E|---------------------------------------------------------------------------| 
B|---------------------------------------------------------------------------| 
G|---------------------------------------------------------------------------| 
D|-5-5-5-5-5-5-5-5-4-4-4-4-4-4-4-4-7-7-7-7-7-7-7-7-7-7-7-7-8-8-8-8-9~~------| 
A|-5-5-5-5-5-5-5-5-4-4-4-4-4-4-4-4-7-7-7-7-7-7-7-7-7-7-7-7-8-8-8-8-9~~------| 
E|-3-3-3-3-3-3-3-3-2-2-2-2-2-2-2-2-5-5-5-5-5-5-5-5-5-5-5-5-6-6-6-6-7~~------| 

(guitarra 1) 
E|---------------------------------------------------------------------------| 
B|-----3-3-3--5--5--5-------------------------------------------------------| 
G|-----4-4-4--6--6--6-------------------------------------------------------| 
D|----------------------play 2x----------------------------------------------| 
A|-2-2---------4--4----------------------------------------------------------| 
E|---------------------------------------------------------------------------| 
PM * *         *  * 
(guitarra 2) 
E|---------------------------------------------------------------------------| 
B|---------------------------------------------------------------------------| 
G|---------------------------------------------------------------------------| 
D|-5-5-5-5-5-5-5-5-7-7-7-7-7-7-7-7-5-5-5-5-5-5-5-5-7-7-7-7-7-7-7-7-----------| 
A|-5-5-5-5-5-5-5-5-7-7-7-7-7-7-7-7-5-5-5-5-5-5-5-5-7-7-7-7-7-7-7-7-----------| 
E|-3-3-3-3-3-3-3-3-5-5-5-5-5-5-5-5-3-3-3-3-3-3-3-3-5-5-5-5-5-5-5-5-----------| 

E|---------------------------------------------------------------------------| 
B|---------------------------------------------------------------------------| 
G|---------------------------------------------------------------------------| 
D|-5-5-5-5-5-5-5-5-4-4-4-4-4-4-4-4-7-7-7-7-7-7-7-7-7-7-7-7-7-7-7-7-----------| 
A|-5-5-5-5-5-5-5-5-4-4-4-4-4-4-4-4-7-7-7-7-7-7-7-7-7-7-7-7-7-7-7-7-----------| 
E|-3-3-3-3-3-3-3-3-2-2-2-2-2-2-2-2-5-5-5-5-5-5-5-5-5-5-5-5-5-5-5-5-----------| 

Refrão: 
(guitarra 1) 
E|-10-10-10-10-12-12-12-12-14-14-14-14-14-14-14-14| 
B|-12-12-12-12-14-14-14-14-15-15-15-15-15-15-15-15| 
G|------------------------------------------------| 
D|------------------------------------------------| 
A|------------------------------------------------| 
E|------------------------------------------------| 

E|-15-15-15-15-17-17-17-17-12-12-12-12-14-14-12-12| 
B|-15-15-15-15-19-19-19-19-14-14-14-14-15-15-14-14| 
G|------------------------------------------------| 
D|------------------------------------------------| 
A|------------------------------------------------| 
E|------------------------------------------------| 

E|-10-10-10-10-12-12-12-12-14-14-14-14-14-14-14-14| 
B|-12-12-12-12-14-14-14-14-15-15-15-15-15-15-15-15| 
G|------------------------------------------------| 
D|------------------------------------------------| 
A|------------------------------------------------| 
E|------------------------------------------------| 

E|-15-15-15-15-17-17-17-17-12-12-12-12-12-12-12~-| 
B|-15-15-15-15-19-19-19-19-14-14-14-14-14-14-14~-| 
G|------------------------------------------------| 
D|------------------------------------------------| 
A|------------------------------------------------| 
E|------------------------------------------------| 

Refrão: 
(guitarra 2) 
E|---------------------------------------------------------------------------| 
B|---------------------------------------------------------------------------| 
G|-4-4-4-4-4-4-4-4-6-6-6-6-6-6-6-6-7-7-7-7-7-7-7-7-7-7-7-7-7-7-7-7-----------| 
D|-4-4-4-4-4-4-4-4-6-6-6-6-6-6-6-6-7-7-7-7-7-7-7-7-7-7-7-7-7-7-7-7-----------| 
A|-2-2-2-2-2-2-2-2-4-4-4-4-4-4-4-4-5-5-5-5-5-5-5-5-5-5-5-5-5-5-5-5-----------| 
E|---------------------------------------------------------------------------| 

E|---------------------------------------------------------------------------| 
B|---------------------------------------------------------------------------| 
G|---------------------------------------------------------------------------| 
D|-5-5-5-5-5-5-5-5-4-4-4-4-4-4-4-4-7-7-7-7-7-7-7-7-9-9-9-9-7-7-7-7-----------| 
A|-5-5-5-5-5-5-5-5-4-4-4-4-4-4-4-4-7-7-7-7-7-7-7-7-9-9-9-9-7-7-7-7-----------| 
E|-3-3-3-3-3-3-3-3-2-2-2-2-2-2-2-2-5-5-5-5-5-5-5-5-7-7-7-7-5-5-5-5-----------| 

E|---------------------------------------------------------------------------| 
B|---------------------------------------------------------------------------| 
G|-4-4-4-4-4-4-4-4-6-6-6-6-6-6-6-6-7-7-7-7-7-7-7-7-7-7-7-7-7-7-7-7-----------| 
D|-4-4-4-4-4-4-4-4-6-6-6-6-6-6-6-6-7-7-7-7-7-7-7-7-7-7-7-7-7-7-7-7-----------| 
A|-2-2-2-2-2-2-2-2-4-4-4-4-4-4-4-4-5-5-5-5-5-5-5-5-5-5-5-5-5-5-5-5-----------| 
E|---------------------------------------------------------------------------| 

E|---------------------------------------------------------------------------| 
B|---------------------------------------------------------------------------| 
G|---------------------------------------------------------------------------| 
D|-5-5-5-5-5-5-5-5-4-4-4-4-4-4-4-4-7-7-7-7-7-7-7-7-7-7-7-7-8-8-8-8-9~~------| 
A|-5-5-5-5-5-5-5-5-4-4-4-4-4-4-4-4-7-7-7-7-7-7-7-7-7-7-7-7-8-8-8-8-9~~------| 
E|-3-3-3-3-3-3-3-3-2-2-2-2-2-2-2-2-5-5-5-5-5-5-5-5-5-5-5-5-6-6-6-6-7~~------| 

(Verso) 

(Refrão) 

Refrão 2: 
(guitarra 2) 
E|---------------------------------------------------------------------------| 
B|---------------------------------------------------------------------------| 
G|---------------------------------------------------------------------------| 
D|-5-5-5-5-5-5-5-5-4-4-4-4-4-4-4-4-4-7-7-7-7-7-7-7-7-7-7-7-7-7-7-7-7---------| 
A|-5-5-5-5-5-5-5-5-4-4-4-4-4-4-4-4-4-7-7-7-7-7-7-7-7-7-7-7-7-7-7-7-7---------| 
E|-3-3-3-3-3-3-3-3-2-2-2-2-2-2-2-2-2-5-5-5-5-5-5-5-5-5-5-5-5-5-5-5-5---------| 

Ponte: 
(guitarra 1) 
(Riff 1) 
E|-10--10----10-10--------------------------------| 
B|---10--10-7--7---7-7-7--------------------------| 
G|----------------9-9-9-9-7-----------------------| 
D|------------------------------------------------| 
A|------------------------------------------------| 
E|------------------------------------------------| 

(Riff 2) 
E|-10--10-10-10--------------------------------------------------------------| 
B|---10--7--7---7-7-8-10-7-10------------------------------------------------| 
G|-------------9-9-----------------------------------------------------------| 
D|---------------------------------------------------------------------------| 
A|---------------------------------------------------------------------------| 
E|---------------------------------------------------------------------------| 

(Riff 1) 

(Riff 2) 

(Riff 1) 

(Riff 2) 

(Riff 1) 

Ponte: 
(guitarra 2) 
E|---------------------------------------------------------------------------| 
B|---------------------------------------------------------------------------| 
G|---------------------------------------------------------------------------| 
D|-5-5-5-5/12-12-12-127-7-7-7/9-97-75-5-5-5/12-12-12-127-7-7-7-7-7-7-7---| 
A|-5-5-5-5/12-12-12-127-7-7-7/9-97-75-5-5-5/12-12-12-127-7-7-7-7-7-7-7---| 
E|-3-3-3-3/10-10-10-105-5-5-5/7-75-53-3-3-3/10-10-10-105-5-5-5-5-5-5-5---| 

Outro: 
(guitarra 1) 
E|10--10----10-10---------------10--10----10-10----------| 
B|--10--10-7--7---7-7-8-10-7-10---10--10-7--7---7-7-7----| 
G|---------------9-9---------------------------9-9-9-9-7-| 
D|-------------------------------------------------------| 
A|-------------------------------------------------------| 
E|-------------------------------------------------------| 

E|10----10------10---10-------------------10~~~------| 
B|---10----10-7----7------7---7-8-10-7-10----7~~~----| 
G|----------------------9---9------------------9~~~--| 
D|---------------------------------------------------| 
A|---------------------------------------------------| 
E|---------------------------------------------------| 
(guitarra 2) 
E|---------------------------------------------------------------------------| 
B|---------------------------------------------------------------------------| 
G|---------------------------------------------------------------------------| 
D|-5-5-5-5/12-12-12-127-7-7-7/9-97-75-5-5-5/12-12-12-127-7-7-7-7-7-7-7---| 
A|-5-5-5-5/12-12-12-127-7-7-7/9-97-75-5-5-5/12-12-12-127-7-7-7-7-7-7-7---| 
E|-3-3-3-3/10-10-10-105-5-5-5/7-75-53-3-3-3/10-10-10-105-5-5-5-5-5-5-5---| 

E|---------------------------------------------------------------------------| 
B|---------------------------------------------------------------------------| 
G|---------------------------------------------------------------------------| 
D|-5-5-5-5/12-12-12-127-7-7-7/9-97-75~~~/12~~~7~~~-----------------------| 
A|-5-5-5-5/12-12-12-127-7-7-7/9-97-75~~~/12~~~7~~~-----------------------| 
E|-3-3-3-3/10-10-10-105-5-5-5/7-75-53~~~/10~~~5~~~-----------------------| 
		  

See also:

tabs Vineyard - Vim Para Adorar-te tabs Warren Barfield - 10 Hours tabs Christian Hymm - Amazing Grace tabs Hillsong - One way tabs 12-Stones - Crash tabs 12-Stones - Broken
e-chords

Other versions:

tabs Needtobreathe - Dont Wait For Daylight
auto scroll beats size up size down change color hide chords drawings
tab show chords e-chords YouTube Clip e-chords hide all tabs e-chords go to top tab

share