Ne-yo

home > Ne-yo

So sick Tab

Ne-yo

Difficulty: ExpertExpert

by europeu

tuner correct add songbook print version text version save to e-mail
chordsukulelecavacokeyboardtabbassdrumsharmonicsflute Guitar Pro
chords

So sick

  		Intro: 
 
e|------6--------6--------4-------4--6---------|| 
B|-----7-7------6-6------4-4-----4--6----------|| 
G|----6---6----6---6----4---4---4--6-----------|| 
D|---------------------------------------------||  x2 
A|--6--------6--------4-------4--6-------------|| 
E|---------------------------------------------|| 
 
         *         *         *         
e|------6---------6---------4--------4--6------|| 
B|-----7--7------6--6------4--4-----4--6-------|| 
G|----6----6----6----6----4----4---4--6--------||  x1 
D|---------------------------------------------|| 
A|--6---------6---------4--------4-6-----------|| 
E|---------------------------------------------|| 
 
e|---------|| 
B|-----6h7-|| 
G|----6----|| x8 
D|---------|| 
A|---------|| 
E|---------|| 
 
Verse/Chorus: 
         *         *         *                      _ 
e|------6---------6---------4--------4--6------||    ) 
B|-----7--7------6--6------4--4-----4--6-------||    ) 
G|----6----6----6----6----4----4---4--6--------||    ) 
D|---------------------------------------------|| x2 ) 
A|--6---------6---------4--------4-6-----------||    ) 
E|---------------------------------------------||    ) PLay Through 
                                                     ) 
                                                     ) 
e|------6---------6---------4--------4---------||    ) 
B|-----7--7------6--6------4--4-----4----------||    ) 
G|----6----6----6----6----4----4---4-----------||    ) The HoLe 
D|---------------------------------------------|| x1 ) 
A|--6---------6---------4--------4-------------||    ) 
E|---------------------------------------------||    )                                                    
                                                     ) 
                                                     ) 
e|---------||                                        ) SoNg!! 
B|-----6h7-||                                        ) 
G|----6----|| x8                                     ) 
D|---------||                                        ) 
A|---------||                                        ) 
E|---------||                                        ) 
                                                     ) 
                                                    - 

	  

Search Paypal
auto scroll beats size up size down change color hide chords drawings
tab show chords e-chords YouTube Clip e-chords hide all tabs e-chords go to top tab