Nazareth

home > Nazareth

Love hurts (ver. 2) Tab

Nazareth

Difficulty: nolevelnolevel

by marciocaliston

tuner correct add songbook print version text version save to e-mail
chordsukulelecavacokeyboardtabbassdrumsharmonicsflute Guitar Pro
chords

Love hurts (ver. 2)

  		Intro: 

   G                                   F    C                           
e|----------3-----------------3------|--1----0--| 
B|------------3-----------------3----|--1----1--| 
G|--------0-----0-----------0-----0--|--2----0--| 
D|------0---------0-------0----------|--3----2--| 
A|----2-----------------2------------|--3----3--| 
E|--3-----------------3--------------|--1-------| 

Verse I: 

   G                  Em                      C   G                  D        C 
e|----------3----------|---------------------|----------3----------|------2--------0----| 
B|------------3--------|----------0----------|--------1---1--------|----3---3--------1--| 
G|--------0-----0------|--------0---0--------|------0-------0------|--2-----------------| 
D|------0---------(0)--|------2-------2------|----2-----------(0)--|--0----------2------| 
A|----2----------------|----2-----------(2)--|--3------------------|-----------3--------| 
E|--3------------------|--0------------------|---------------------|--------------------| 


   G                  Em                      C   G                  D        C 
e|---------3----------|--------------------|---------3----------|-----2-------0----| 
B|-----------3--------|---------0----------|-------1---1--------|---3---3-------1--| 
G|-------0-----0------|-------0---0--------|-----0-------0------|-2----------------| 
D|-----0---------(0)--|-----2-------2------|---2-----------(0)--|-0---------2------| 
A|---2----------------|---2-----------(2)--|-3------------------|---------3--------| 
E|-3------------------|-0------------------|--------------------|------------------| 


  Em      Asus2     G       Em        C   G           D       C 
e|-----------------|-----------------|---------3-----|-----2-------0---| 
B|-----0-------0---|-----0-------0---|-------1---1---|---3---3-------1-| 
G|-------0-------2-|-------0-------0-|-----0-------0-|-2---------------| 
D|---2-------2-----|-----------2-----|---2-----------|-0---------2-----| 
A|-2-------0-------|---2-----2-------|-3-------------|---------3-------| 
E|-----------------|-3---------------|---------------|-----------------| 


   G                   F     C   G 
e|---------3---------|-1-----0-|---------3-------------3-----| 
B|-----------3-------|-1-----1-|-----------3-------------3---| 
G|-------0-----0-----|-2-----0-|-------0-----0-------0-----0-| 
D|-----0---------(0)-|-3-----2-|-----0-------------0---------| 
A|---2---------------|-3-----3-|---2-------------2-----------| 
E|-3-----------------|-1-------|-3-------------3-------------| 






Verse II: 


   G                  Em                      C   G                  D        C 
e|----------3----------|---------------------|----------3----------|------2--------0----| 
B|------------3--------|----------0----------|--------1---1--------|----3---3--------1--| 
G|--------0-----0------|--------0---0--------|------0-------0------|--2-----------------| 
D|------0---------(0)--|------2-------2------|----2-----------(0)--|--0----------2------| 
A|----2----------------|----2-----------(2)--|--3------------------|-----------3--------| 
E|--3------------------|--0------------------|---------------------|--------------------| 


   G                  Em                      C   G                  D        C 
e|---------3----------|--------------------|---------3----------|-----2-------0----| 
B|-----------3--------|---------0----------|-------1---1--------|---3---3-------1--| 
G|-------0-----0------|-------0---0--------|-----0-------0------|-2----------------| 
D|-----0---------(0)--|-----2-------2------|---2-----------(0)--|-0---------2------| 
A|---2----------------|---2-----------(2)--|-3------------------|---------3--------| 
E|-3------------------|-0------------------|--------------------|------------------| 


  Em      Asus2     G       Em        C   G           D       C 
e|-----------------|-----------------|---------3-----|-----2-------0---| 
B|-----0-------0---|-----0-------0---|-------1---1---|---3---3-------1-| 
G|-------0-------2-|-------0-------0-|-----0-------0-|-2---------------| 
D|---2-------2-----|-----------2-----|---2-----------|-0---------2-----| 
A|-2-------0-------|---2-----2-------|-3-------------|---------3-------| 
E|-----------------|-3---------------|---------------|-----------------| 


   G                   F     C   G 
e|---------3---------|-1-----0-|---------3-------------3-----| 
B|-----------3-------|-1-----1-|-----------3-------------3---| 
G|-------0-----0-----|-2-----0-|-------0-----0-------0-----0-| 
D|-----0---------(0)-|-3-----2-|-----0-------------0---------| 
A|---2---------------|-3-----3-|---2-------------2-----------| 
E|-3-----------------|-1-------|-3-------------3-------------| 



Bridge: 

  G             Em      G         Em      G         Em     G 
e|-------------|-----------------|-----------------|----------------| 
B|---------3---|--0--------3-----|---0-------3-----|--0-------3-----| 
G|-------0---0-|----0--------0---|-----0-------0---|----0-------0---| 
D|-----0-------|------2--------0-|-------2-------0-|------2-------0-| 
A|---2---------|-2---------------|-2---------------|-2--------------| 
E|-3-----------|---------3-------|---------3-------|--------3-------| 


  A                 A                 D                 D     C 
e|---------0-------|---------0-------|---------2-------|-2----0-| 
B|-------2---2-----|-------2---2-----|-----2-----3-----|-3----1-| 
G|-----2-------2---|-----2-------2---|---3---3-----2---|-2----0-| 
D|---2-----------2-|---2-----------2-|-0-------------0-|-0----2-| 
A|-0---------------|-0---------------|-----------------|------3-| 
E|-----------------|-----------------|-----------------|--------| 


  Em      Asus2     G       Em        C   G           D       C 
e|-----------------|-----------------|---------3-----|-----2-------0---| 
B|-----0-------0---|-----0-------0---|-------1---1---|---3---3-------1-| 
G|-------0-------2-|-------0-------0-|-----0-------0-|-2---------------| 
D|---2-------2-----|-----------2-----|---2-----------|-0---------2-----| 
A|-2-------0-------|---2-----2-------|-3-------------|---------3-------| 
E|-----------------|-3---------------|---------------|-----------------| 


  G                 F     C   G                                 F     C 
e|---------3-------|-1-----0-|---------3---------------3-------|-1-----0-| 
B|-----------3-----|-1-----1-|-----------3---------------3-----|-1-----1-| 
G|-------0-----0---|-2-----0-|-------0-----0---------0-----0---|-2-----0-| 
D|-----0---------0-|-3-----2-|-----0---------0-----0---------0-|-3-----2-| 
A|---2-------------|-3-----3-|---2---------------2-------------|-3-----3-| 
E|-3---------------|-1-------|-3---------------3---------------|-1-------| 



Solo (Play over verse): 

e|-----------------------------------|-----------------------------------------------| 
B|-8v--10b^--8v--12b^--8v--12b^--10v-|-8b^-8v--10b^--8v--12b^--8vv--12b^--10v--14b^v-| 
G|-----------------------------------|-----------------------------------------------| 
D|-----------------------------------|-----------------------------------------------| 
A|-----------------------------------|-----------------------------------------------| 
E|-----------------------------------|-----------------------------------------------| 

(Continue with the end of the verse): 



  Em      Asus2     G       Em        C   G           D       C 
e|-----------------|-----------------|---------3-----|-----2-------0---| 
B|-----0-------0---|-----0-------0---|-------1---1---|---3---3-------1-| 
G|-------0-------2-|-------0-------0-|-----0-------0-|-2---------------| 
D|---2-------2-----|-----------2-----|---2-----------|-0---------2-----| 
A|-2-------0-------|---2-----2-------|-3-------------|---------3-------| 
E|-----------------|-3---------------|---------------|-----------------| 




  G                 F     C   G                 F     C   G               F    C 
e|---------3-------|-1-----0-|---------3-------|-1-----0-|---------3-----|-1----0-| 
B|-----------3-----|-1-----1-|-----------3-----|-1-----1-|-----------3---|-1----1-| 
G|-------0-----0---|-2-----0-|-------0-----0---|-2-----0-|-------0-----0-|-2----0-| 
D|-----0---------0-|-3-----2-|-----0---------0-|-3-----2-|-----0---------|-3----2-| 
A|---2-------------|-3-----3-|---2-------------|-3-----3-|---2-----------|-3----3-| 
E|-3---------------|-1-------|-3---------------|-1-------|-3-------------|-1------| 
  

  


  
         G                  Em               C   G           D     
Love hurts, Love scars, Love wounds and mars 
C     G             Em          C   G        D    
Any heart not tough or strong enough 
     C                  Em    Asus2          G 
To take a lot of pain, take a lot of pain 
Em                   C   G                         D         C  
Love is like a cloud, it holds a lot of rain 
C      G         F     C             G           
Love hurts, Ooo-oo Love hurts 

      G            Em            Cadd3     D     
I'm young, I know, But even       so 
C            G            Em      C   G           D      
I know a thing or two - I learned from you 
C                          Em  Asus4               G 
I really learned a lot, really learned a lot 
Em                 C   G                                      D     C  
Love is like a flame It burns you when it's hot 
         G         F     C            G 
Love hurts, Ooo-oo Love hurts 
Em                             G      Em     G          Em        
Some fools think of happiness, blissfulness,  
G            Em 
togetherness 
A                 
Some fools fool themselves, I guess 
A                             D        
They're not foolin' me 



C                     Em  Asus4             G 
I know it isn't true I know it isn't true 
Em                  C   G                          D       C  
Love is just a lie made to make you blue 
         G        F     C             G 
Love hurts, Ooo-oo Love hurts 

Solo 

C                    Em     Asus4             G 
I know it isn't true   I know it isn't true 
Em                  C   G                         D      C 
Love is just a lie made to make you blue 
        G          F      C           G 
Love hurts, Ooo-oo Love hurts 
F     C              G        F     C 
Ooo-oo, Love hurts Ooo-oo 




	  

Full key step upFull key step up
Half key step upHalf key step up
Half key step downHalf key step down
Full key step downFull key step down
Search Paypal
auto scroll beats size up size down change color hide chords drawings
tab show chords e-chords YouTube Clip e-chords hide all tabs e-chords go to top tab