Natalie Imbruglia

home > Natalie Imbruglia

Torn Tab

Natalie Imbruglia

Difficulty: BeginnerBeginner

by %5FSantiago%5F

tuner correct add songbook print version text version save to e-mail
chordsukulelecavacokeyboardtabbassdrummharmonicsflute Guitar Pro
chords

Torn

Key:  F More
Torn Key CC
Torn Key C#C#
Torn Key DD
Torn Key D#D#(one step down)
Torn Key EE(half step down)
Torn Key FF(original key)
Torn Key F#F#(half step up)
Torn Key GG(one step up)
Torn Key G#G#
Torn Key AA
Torn Key A#A#
Torn Key BB
	  Solo: 
        F    C             Dm    (C) Bb     F    C             Dm  (C)  Bb 
 
E|-----------------|--10-\-5~~~~~~~--|-----------------|--10-\-5~~~~~~~--| 
B|--6-/-13~~~~~~~--|-----------------|--6-/-13~~~~~~~--|-----------------| 
G|-----------------|-----------------|-----------------|-----------------| 
D|-----------------|-----------------|-----------------|-----------------| 
A|-----------------|-----------------|-----------------|-----------------| 
E|-----------------|-----------------|-----------------|-----------------|- 
 
 
        F    C              Dm   (C) Bb     F    C             Dm  (C)  Bb 
 
E|-----------------|--10/13\10~\5~~--|-----------------|--10-\-5~~~~~~~--| 
B|--6-/-13~~~~~~~--|-----------------|--6-/-13~~~~~~~--|-----------------| 
G|-----------------|-----------------|-----------------|-----------------| 
D|-----------------|-----------------|-----------------|-----------------| 
A|-----------------|-----------------|-----------------|-----------------| 
E|-----------------|-----------------|-----------------|-----------------| 
 
trancrição: Marcelo Santiago ([email protected]) 
	  

there is a video lesson for this song
view full video
Full key step upFull key step up
Half key step upHalf key step up
Half key step downHalf key step down
Full key step downFull key step down
Search Paypal
auto scroll beats size up size down change color hide chords drawings
tab show chords e-chords YouTube Clip e-chords hide all tabs e-chords go to top tab