Nasty Savage

Unchained Angel

Nasty Savage

tabs

by  EDSOOLIVEIRA

save to print version add songbook text version e-mail correct tuner
chordsukulelecavacokeyboardtabbassdrumsharmonicaflute Guitar Pro
close

there isn't a video lesson for this song

chords

Unchained Angel

	  		
 (Intro) 
   Gtr. 1 
e|--------------------------------------------------------------- 
B|--------------------------------------------------------------- 
G|--------------------------------------------------------------- 
D|--------------------------------------------------------------- 
A|--2-------2-----2-------3---2-------2-----2-------1h2p1-------- 
E|--0-0-1-3-0---3-0-0-1-3-1---0-0-1-3-0---3-0-0-1-3-------------- 

   Gtr. 2 
e|--------------------------------------------------------------- 
B|--------------------------------------------------------------- 
G|--------------------------------------------------------------- 
D|--------------------------------------------------------------- 
A|--2-------2-----2-------3---2-------2-----2-------------------- 
E|--0-------0-----0-------1---0-------0-----0-------------------- 

Fig. 1b 
e|--------------------------------------------------------------- 
B|--------------------------------------------------------------- 
G|--------------------------------------------------------------- 
D|----------------------------------------------3---------------- 
A|--2-------2---2-------3---2-------2---2-------1---------------- 
E|--0-0-1-3-0-0-0-0-1-3-1-0-0-0-1-3-0-0-0-0-1-3------------------ 

Fig. 1c (Verse) 
e|--------------------------------------------------------------- 
B|--------------------------------------------------------------- 
G|--------------------------------------------------------------- 
D|--------------------------------------------------------------- 
A|--2-------2---2-------3---2-------2---2-------1h2p1------------ 
E|--0-0-1-3-0-0-0-0-1-3-1-0-0-0-1-3-0-0-0-0-1-3------------------ 

Fig. 2 
e|--------------------------------------------------------------- 
B|--------------------------------------------------------------- 
G|--------------------7------------------------------------------ 
D|---4-4-------4-4----5------------------------------------------ 
A|---2-2---4---2-2----------------------------------------------- 
E|-------0-2-0-----0--------------------------------------------- 

Fig. 2b (Chorus) 
e|-----------------------|--------------------------------------- 
B|-----------------------|--------------------------------------- 
G|--------------------7--|--------------------------------------- 
D|---4-4-------4-4----5--|----4-4-------4-4---------------------- 
A|---2-2---4---2-2-------|----2-2---4---2-2---7------------------ 
E|-------0-2-0-----0-----|--0-----0-2-0-----0-5------------------ 

Fig. 2c 
e|--------------------------------------------------------------- 
B|--------------------------------------------------------------- 
G|--------------------------------------------------------------- 
D|--6-6-------6-6------------------------------------------------ 
A|--4-4---5---4-4---5-------------------------------------------- 
E|------0-3-0-----0-3-0------------------------------------------ 

Fig. 3 
e|--------------------------------------------------------------- 
B|--------------------------------------------------------------- 
G|--------------------------------------------------------------- 
D|--------------------------------------------------------------- 
A|--2-------1h2p1--2-------1h2p1--2-------1h2p1------------------ 
E|--0-0-1-3--------0-0-1-3--------0-0-1-3------------------------ 



 
		  

See also:

tabs Metallica - Enter Sandman (versão 3) tabs Metallica - Mama Said tabs Megadeth - In My Darkest Hour tabs Metallica - Welcome home(sanitarium) (Live) tabs Metallica - The Thing That Should Not Be tabs Metallica - Tuesday's Gone
e-chords

Other versions:

tabs Nasty Savage - Unchained Angel
auto scroll beats size up size down change color hide chords drawings
tab show chords e-chords YouTube Clip e-chords hide all tabs e-chords go to top tab

share