Nasty Savage

Stabbed In The Back

Nasty Savage

tabs

by  EDSOOLIVEIRA

save to print version add songbook text version e-mail correct tuner
chordsukulelecavacokeyboardtabbassdrumsharmonicaflute Guitar Pro
close

there isn't a video lesson for this song

chords

Stabbed In The Back

	  		Fig. 1 x4 
e|-----------------|-------------|-----------------|-------------| 
B|-----------------|-------------|-----------------|-------------| 
G|-----------------|-------------|-----------------|-------------| 
D|-----------------|--------4----|-----------------|--------2-3--| 
A|--3-------3-4-2--|------6-2-6--|--3-------3-4-2--|-------------| 
E|--1-1-1-1--------|--0-0-4---4--|--1-1-1-1--------|--0-0-4------| 
      . . .                           . . .           . . 

Riff 1 x6 
e|---------------|-----------------| 
B|---------------|-----------------| 
G|---------------|-----------------| 
D|---------------|-----------------| 
A|--3-2---3-2-4--|--3-2---3-2------| 
E|------1--------|------1-----2-1--| 
        .               .     . . 

Riff 2 x2 
e|-----------|-----------|-----------|-----------| 
B|-----------|-----------|-----------|-----------| 
G|-----------|-----------|-----------|-----------| 
D|--------3--|-----------|--------3--|-----------| 
A|----2-3----|----2-3----|----2-3----|----4-3-2--| 
E|--1--------|--1-----1--|--1--------|--1--------| 
    . . . .     . . . .     . . . .     . . . .  

Repeat Riff 1 x4 
Repeat Fig. 1 x4 

Riff 3 x6 
e|-----------------------------------| 
B|-----------------------------------| 
G|----------4h5-----5h6-4h5-3h5------| 
D|--4h5-1h2-----1h2-------------1h2--| 
A|-----------------------------------| 
E|-----------------------------------| 

Fig. 2 x4 (guitar two starts playing this after guitar one plays Riff 3 two times) 
e|-------------------| 
B|-------------------| 
G|-------------------| 
D|------6-5---6-5-4--| 
A|--3-5-4-3-5-4-3-2--| 
E|--1-3-----3--------| 

Riff 4 x4 (under solo) 
e|-----------------------------------| 
B|-----------------------------------| 
G|-----------------------------------| 
D|-----------------------------------| 
A|-----------------------------------| 
E|--111-111-111-111-333-333-333-333--| 

Riff 5 x4 (under solo) 
e|-----------------------------------| 
B|-----------------------------------| 
G|-----------------------------------| 
D|-----------------------------------| 
A|--333-333-333-333-222-222-222-222--| 
E|-----------------------------------| 

Repeat Riff 4 x4 
Repeat Riff 5 x4 

Fig. 3 x4 
e|--------------|----------------|----------------|-------------| 
B|--------------|----------------|----------------|-------------| 
G|--------------|----------------|----------------|-------------| 
D|--------------|----------------|----------------|-------------| 
A|--2-----------|----2-----------|----2-----------|----5-3-6-3--| 
E|--0-0-3-0-3^--|--0-0-0-3-0-3^--|--0-0-0-3-0-3^--|--0-3-1-4-1--| 

Riff 6 x4 
e|-------------------|-------------------|-------------------|---------------| 
B|-------------------|-------------------|-------------------|---------------| 
G|-------------------|-------------------|-------------------|---------------| 
D|-------------------|-------------------|-------------------|----------5-4--| 
A|-------------------|----------3-2------|-------------------|----------3-2--| 
E|--3-1-4-3-1-3-1-0--|--3-1-4-3-----3-4--|--3-1-4-3-1-3-1-0--|--3-1-4-3------| 

Riff 7 x4 
e|-----------------------------------| 
B|-----------------------------------| 
G|-----------------------------------| 
D|----------------3------------------| 
A|----4---3-----------4---3----------| 
E|--0---0---0-0-0---0---0---0-0-0-1--| 
    .   .   . . .   .   .   . . . . 

Repeat Riff 6 x4 

Fig. 4 x1 
e|-----|-----|-----------------------------------------------------------------------| 
B|-----|-----|-----------------------------------------------------------------------| 
G|-----|-----|-----------------------------------------------------------------------| 
D|--4--|-----|-----------------------------------------------------------------------| 
A|--2--|--5--|------3-------4-------3-------4-------3-------4-------3-------4--------| 
E|-----|--3--|--1-1---1-1-1---1-0-1---1-1-1---1-0-1---1-1-1---1-0-1---1-1-1---1-0-1--| 

Repeat Riff 1 x6 
Repeat Riff 2 x2 
Repeat Riff 1 x4 
Repeat Fig. 1 x4 

End x1 
e|-----| 
B|-----| 
G|-----| 
D|-----| 
A|--3--| 
E|--1--| 
		  

See also:

tabs Metallica - Enter Sandman (versão 3) tabs Metallica - Mama Said tabs Megadeth - In My Darkest Hour tabs Metallica - Welcome home(sanitarium) (Live) tabs Metallica - The Thing That Should Not Be tabs Metallica - Tuesday's Gone
e-chords

Other versions:

tabs Nasty Savage - Stabbed In The Back
auto scroll beats size up size down change color hide chords drawings
tab show chords e-chords YouTube Clip e-chords hide all tabs e-chords go to top tab

share