Naruto

home > Naruto

Hokage's Funeral Tab

Naruto

Difficulty: nolevelnolevel

by bombaXXX

tuner correct add songbook print version text version save to e-mail
chordsukulelecavacokeyboardtabbassdrumsharmonicsflute Guitar Pro
chords

Hokage's Funeral

  		E|-5-----------7-5----------------3-------------------------------------| 
B|-----------------8-5----1-3-5-----3--------------1-3-1----1-----------| 
G|-----2-4-5------------0----------------------2---------2-----4--0-----| 
D|---2------------------------------0----0-2-3--------------------------| 
A|-0-----------------3-----------------0-----------------0-----------0--| 
E|----------------------------------------------------------------------| 

E|-5-----------7-5----------------3------------------------------| 
B|-----------------8-5----1-3-5-----3--------------1-3-1---------| 
G|-----2-4-5------------0----------------------2---------2-------| 
D|---2------------------------------0----0-2-3-------------------| 
A|-0-----------------3-----------------0-----------------0----0--| 
E|---------------------------------------------------------------| 

E|--------------------------------------------------5-7-8-7-----------------| 
B|------------------------------------------------5---------8-5-------------| 
G|-----2---2---5---4-----4--------0--2-----2-4-5------0-------0-5-4-2-------| 
D|-----------------------------2---------2----------------------------------| 
A|---0-0-0-0-0-3---2-----------------0--------------------------------------| 
E|-1-------------5-----3---3---3--3-----------------------------------------| 

E|--------------------------------------------------------------0----7----12-| 
B|---------------------------------------------------------------------------| 
G|-----2---2---5---4-----4--------0--0---------2---2-------0-----------------| 
D|-----------------------------2---------4-4-5---4---0-2-4-------------------| 
A|---0-0-0-0-0-3---2--------------2------0-----------------2-----------------| 
E|-1-------------5-----3---3---3-----3-------------3-------------------------| 

E|-----------------------------------------5---8-7-5---3-5----8--7-----| 
B|----------------3---3----------------3-5-----------------5--------8--| 
G|-2---2---4---5----5------2---4---5-----------------------------------| 
D|---2-------------------2-----------------0-------0-------------------| 
A|-0-----0---0----0---0------0---0-------------------------0-----------| 
E|---------------------------------------------------------------------| 

E|-----------------------------------------5---8-7-5---3-5-----3--5-----------------| 
B|----------------3---3----------------3-5-----------------5------------------------| 
G|-2---2---4---5----5------2---4---5------------------------------------2-4-5-2-----| 
D|---2-------------------2-----------------0-------0------------------2---------2---| 
A|-0-----0---0----0---0------0---0-------------------------0----------------------3-| 
E|----------------------------------------------------------------------------------| 

E|-------------7-5----------------3--------------------------------------| 
B|-----------------8-5----1-3-5-----3--------------1-3-1-----------------| 
G|-2----2-4-5------------0----------------------2--------2---2-2-4---0---| 
D|---2------------------------------0----0-2-3---------------------------| 
A|-0-----------------3-----------------0-----------------0---0-0-----2---| 
E|---------------------------------------------------------------3-----3-| 

E|-------------7-5----------------3--------------------------------0-5-7-8-----5---8--7-| 
B|-----------------8-5----1-3-5-----3--------------1-3-1--------------------------------| 
G|-2---2-4-5------------0----------------------2---------2---2-4-5-----------------5--4-| 
D|---2------------------------------0----0-2-3---------------------------0--------------| 
A|-0-----------------3-----------------0-----------------0-----------------0-3-3--------| 
E|--------------------------------------------------------------------------------------| 

E|-----0------------7-5--------------0--3------------8--7------------8-5-----5-8--------------0--7---12---| 
B|--------3-------3-----8-5---------------3------3-------------------------8------------------------------| 
G|------------2-4-----------------------0------0-----5--4-------2-----------------------------------------| 
D|-2------0-2------------------------2----0--2---0------------2---2----7---7-7-10---------6---------------| 
A|-3----------------------7--2-3-5--------------------------0---0---------------------7-9-----------------| 
E|--------------------------------------------------------0-------------------------7---------------------| 

E|-------------7-5----------------3--------------------------------------| 
B|-----------------8-5----1-3-5-----3--------------1-3-1-----------------| 
G|-2----2-4-5------------0----------------------2--------2---2-2-4---0---| 
D|---2------------------------------0----0-2-3---------------------------| 
A|-0-----------------3-----------------0-----------------0---0-0-----2---| 
E|---------------------------------------------------------------3-----3-| 

E|-------------7-5----------------3----------------------------------5-----5--| 
B|-----------------8-5----1-3-5-----3--------------1-3-1---------5-----5---5--| 
G|-2----2-4-5------------0----------------------2--------2---5-----5-------5--| 
D|---2------------------------------0----0-2-3-----------------7-----------7--| 
A|-0-----------------3-----------------0-----------------0-----------------7--| 
E|-------------------------------------------------------------------------5--| 
	  

Search Paypal
auto scroll beats size up size down change color hide chords drawings
tab show chords e-chords YouTube Clip e-chords hide all tabs e-chords go to top tab