Naruto

home > Naruto

Haku Death Theme Tab

Naruto

Difficulty: ExpertExpert

by lucicamargo

tuner correct add songbook print version text version save to e-mail
chordsukulelecavacokeyboardtabbassdrumsharmonicsflute Guitar Pro
chords

Haku Death Theme

	  E|------------------------------------------------------------------------| 
B|------11--13--15------11--10------------15------------------------------| 
G|---12-------------12------------10--------------------------------------| 
D|------------------------------------------------------------------------| 
A|------------------------------------------------------------------------| 
E|------------------------------------------------------------------------| 

E|------------------------------------------------------------------------| 
B|------11--13----11------------10--8-------------------------------------| 
G|---12--------------14-12-10---------------------------------------------| 
D|------------------------------------------------------------------------| 
A|------------------------------------------------------------------------| 
E|------------------------------------------------------------------------| 
	  

there isn't a video lesson for this song

request
Search Paypal
auto scroll beats size up size down change color hide chords drawings
tab show chords e-chords YouTube Clip e-chords hide all tabs e-chords go to top tab