Naruto

home > Naruto

Guren (yuukimaru`s Theme) Tab

Naruto

Difficulty: ExpertExpert

by marcnagel

tuner correct add songbook print version text version save to e-mail
chordsukulelecavacokeyboardtabbassdrumsharmonicsflute Guitar Pro
chords

Guren (yuukimaru`s Theme)

	  Riff 1: 

E|------------------------------6-3----| 
B|--------4-6----8---------4-6---------| 
G|----5~------------5~--5~-------------| 
D|-------------------------------------| 
A|-------------------------------------| 
E|-------------------------------------| 


Riff 2: 

E|--3--6--8--8-6--3--(1)-3-------------| 
B|-------------------------3-----------| 
G|-----------------------------8-5~----| 
D|-------------------------------------| 
A|-------------------------------------| 
E|-------------------------------------| 
	  

there isn't a video lesson for this song

request
Search Paypal
auto scroll beats size up size down change color hide chords drawings
tab show chords e-chords YouTube Clip e-chords hide all tabs e-chords go to top tab