Nando Reis

Luz do Olhos

Nando Reis

tabs Beginner beginner

by  LUFANATICO

save to print version add songbook text version e-mail correct tuner
chordsukulelecavacokeyboardtabbassdrumsharmonicaflute Guitar Pro
close

there isn't a video lesson for this song

chords

Luz do Olhos

	  		Intro 

     Am		C	   D/F#	 
e|--------------------------------- 
B|-------1-----------1------3------ 
G|-----2-------------0--------2---- 
D|---2-------------2------------2-- 
A|-0---------0-2-3--------------0-- 
E|------------------------2-------- 

     Am         C          D/F# 
e|-------------------------3------- 
B|-------1-----------1-----2------- 
G|-----2-------------0-----3------- 
D|---2-------------2----------0---- 
A|-0-------0-0-2-3------------0---- 
E|----------------------2-----2---- 
		  

Full key step upFull key step up
Half key step upHalf key step up
Half key step downHalf key step down
Full key step downFull key step down
hide glossary

See also:

tabs Raul Seixas - Cowboy fora da lei tabs Titãs - Vossa Excelência (ver. 2) tabs Detonautas - Outro lugar tabs Engenheiros do Hawaii - Infinita Highway tabs Legião Urbana - O Teatro Dos Vampiros tabs Skank - Vou Deixar (solo)
e-chords

Other versions:

tabs Nando Reis - Luz do Olhos
auto scroll beats size up size down change color hide chords drawings
tab show chords e-chords YouTube Clip e-chords hide all tabs e-chords go to top tab

share