Nada Surf

home > Nada Surf

Traffic Tab

Nada Surf

Difficulty: nolevelnolevel

by adalgomes

tuner correct add songbook print version text version save to e-mail
chordsukulelecavacokeyboardtabbassdrumsharmonicsflute Guitar Pro
chords

Traffic

  		(guitar) 
---------------| 
--13-----------|  
-----14----14--|  
--------12-----| 
---------------| 
---------------| 

(riff 1) 
-----------------------------------| 
-----------------------------------| 
------------------5-5-5-5-5-5-5-5--| 
--6-6-6-6-6-6-6-6------------------| 

(riff 2) 
-----------------------------------| 
-----------------------------------| 
-----------------------------------| 
--6-6-6-6-6-6-6-6-8-8-8-8-8-8-8-8--| 

(riff 3) 
-----------------------------------| 
-----------------------------------| 
--8-8-7-8-8-7-7-5-5-5-5-5-5-5-5-5--| 
-----------------------------------| 

(riff 4) 
-------------------| 
-------------------| 
-------------------| 
--6-6-6-6-6-6-6-6--| 
	  

Search Paypal
auto scroll beats size up size down change color hide chords drawings
tab show chords e-chords YouTube Clip e-chords hide all tabs e-chords go to top tab