Mymp

Eternal Flame

Mymp

tabs Easy easy

save to print version add songbook text version e-mail correct tuner
chordsukulelecavacokeyboardtabbassdrumsharmonicaflute Guitar Pro
close

there isn't a video lesson for this song

chords

Eternal Flame

	  		Transcribe by: Walter Michael De la Cruz - SLU Baguio City - 09224012464 
              ([email protected]) 
 
Tabbed       : March 1, 2005 
 
Note         : You may use Plucking or strumming whatever you like 
 
Intro: G C G C 
 
E|-------------*------------*-----------*------------------| 
B|--3-----3----*--3-----3---*--3----3---*--3-5p3-----------| 
G|-------------*------------*-----------*--------4---------| 
D|-----5-----5-*-----5----5-*-----5---5-*------------------| 
A|-------------*--3---------*-----------*--3---------------| 
E|--3----------*------------*--3--------*------------------| 
 
Verse1: 
   G           Em           C	     D 
E|--------*----------*---------------*---------3--------| 
B|-3---3--*---3---3--*-3-----3-------*---3-------0------| 
G|--------*----------*---------------*------------------| 
D|---5--5-*-----5--5-*----5----5-----*------------------| 
A|--------*----------*-3-------------*---5--5-----------| 
E|-3------*---0------*---------------*------------------| 
  Close your  eyes,   give me your hand darling. 
 
  G                               Em                             C	                 D 
E|--------*----------*-------------------*---------3--------| 
B|-3---3--*---3---3--*-----3-----3-------*---3-------0------| 
G|--------*----------*-------------------*------------------| 
D|---5--5-*-----5--5-*--------5----5-----*------------------| 
A|--------*----------*-----3-------------*---5--5-----------| 
E|-3------*---0------*-------------------*------------------| 
   Do you    feel my heart beating,         do you understand? 
 
    Em      B7     Em       A7    D    Bm       Am 
E|--------*-------*--------*-----------2----------------0--------0--------| 
B|---3--3-*--0--0-*--3---3-*-2---2----3-----3---------1---1-----1--1------| 
G|--------*-------*--------*---0-----2-----2---------2-----2---2----2-----| 
D|--------*----1--*--------*--------0-----4---------2---------2-----------| 
A|----2---*--2----*----2---*-0-----------2---------0---------0------------| 
E|-0------*-------*--0-----*----------------------------------------------| 
    Do you feel the same, am i only dreaming or is this burning an eternal Flame? 
 
Do same as verse 1(use plucking) 
 
G       Em        C              D 
I believe it's meant to be darling, 
 
G           Em7          C                      D Em 
I want you when you are sleeping, you belong to me, 
 
                 B7              Em A7           D       Bm       Am      Am7 
Do you feel the same, am i only dreaming or is this burning an eternal Flame? 
 
Chorus 
 
D       Dm    G                      D	E 
Say my name, sun shines through the rain, 
 
	F       G		C                      A7 G 
a whole life, so lonely, then you come and ease the pain, 
 
  D               Bm               F    D7 
I don't want to loose this feeling oohh 
 
That's it!!! The chords are almost the same to the version of the bangles. The only  
is the Plucking... 
 
Comments,questions?? send me a message in friendster at [email protected] or you  
text me or call me at 09224012464
		  

Full key step upFull key step up
Half key step upHalf key step up
Half key step downHalf key step down
Full key step downFull key step down
hide glossary

See also:

tabs Mymp - Eternal Flame (solo ver 2) tabs X Japan - Enless Rain tabs Mymp - A Little Bit tabs Abingdon Boys School - Kimi No Uta tabs Pillows - Spiky Seeds tabs Mymp - Tell Me Where It Hurts (ver. 2)
e-chords

Other versions:

tabs Mymp - Eternal Flame tabs Mymp - Eternal Flame (solo ver 2) tabs Mymp - Eternal Flame (solo) tabs The Bangles - Eternal flame (solo)
auto scroll beats size up size down change color hide chords drawings
tab show chords e-chords YouTube Clip e-chords hide all tabs e-chords go to top tab

share