save to print version add songbook text version e-mail correct tuner
chordsukulelecavacokeyboardtabbassdrumsharmonicaflute Guitar Pro
close

there isn't a video lesson for this song

chords

Shiva

	  		drum intro 

0:08 
e|---------------------------------------------------------------| 
B|---------------------------------------------------------------| 
G|---------------------------------------------------------------| 
D|--7---9---9----------------------------------------------------|  x 4 
A|--------------7--7--7--7--7--7--7--7--7--7---------------------| 
E|---------------------------------------------------------------| 

Fig A. 
e|---------------------------------------------------------------| 
B|---------------------------------------------------------------| 
G|---------------------------------------------------------7-----|  
D|---7h9---9----5--7--7---4--5--5-----7--9--9---4h5p4----------4-| 
A|---------------------------------------------------------------| 
E|---------------------------------------------------------------|  
                                                                        x2 
e|---------------------------------------------------------------| 
B|---------------------------------------------------------------| 
G|---------------------------------------------------------------|  
D|---7h9---9----5--7--7---4--5--5-----7--9--9---4h5p4------------| 
A|----------------------------------------------------------7----| 
E|---------------------------------------------------------------| 

Fig B. 
e|---------------------------------------------------------------| 
B|---------------------------------------------------------------| 
G|---------------------------------------------------------------| 
D|---/9----9-9-9-9-9-9-9-9-9-9-9------7--7-7-7-------------------| 
A|---/7----7-7-7-7-7-7-7-7-7-7-7------5--5-5-5-------------------| 
E|---------------------------------------------------------------| 

Fig A. 
e|---------------------------------------------------------------| 
B|---------------------------------------------------------------| 
G|---------------------------------------------------------7-----|  
D|---7h9---9----5--7--7---4--5--5-----7--9--9---4h5p4----------4-| 
A|---------------------------------------------------------------| 
E|---------------------------------------------------------------|  
                                                                        x2 
e|---------------------------------------------------------------| 
B|---------------------------------------------------------------| 
G|---------------------------------------------------------------|  
D|---7h9---9----5--7--7---4--5--5-----7--9--9---4h5p4------------| 
A|----------------------------------------------------------7----| 
E|---------------------------------------------------------------| 

Fig B. 
e|---------------------------------------------------------------| 
B|---------------------------------------------------------------| 
G|---------------------------------------------------------------| 
D|---/9----9-9-9-9-9-9-9-9-9-9-9------7--7-7-7-------------------| 
A|---/7----7-7-7-7-7-7-7-7-7-7-7------5--5-5-5-------------------| 
E|---------------------------------------------------------------| 

Fig A. 
e|---------------------------------------------------------------| 
B|---------------------------------------------------------------| 
G|---------------------------------------------------------7-----|  
D|---7h9---9----5--7--7---4--5--5-----7--9--9---4h5p4----------4-| 
A|---------------------------------------------------------------| 
E|---------------------------------------------------------------|  
                                                                        x2 
e|---------------------------------------------------------------| 
B|---------------------------------------------------------------| 
G|---------------------------------------------------------------|  
D|---7h9---9----5--7--7---4--5--5-----7--9--9---4h5p4------------| 
A|----------------------------------------------------------7----| 
E|---------------------------------------------------------------| 

Fig B. 
e|---------------------------------------------------------------| 
B|---------------------------------------------------------------| 
G|---------------------------------------------------------------| 
D|---/9----9-9-9-9-9-9-9-9-9-9-9------7--7-7-7-------------------| 
A|---/7----7-7-7-7-7-7-7-7-7-7-7------5--5-5-5-------------------| 
E|---------------------------------------------------------------| 

1:58 after Fig B. 
e|-----------------| 
B|-----------------| 
G|-----------------|   Distortion End 
D|-------9---------| 
A|-------7---------| 
E|-----------------| 

Fig C. 
e|---------------------------------------------------------------| 
B|---------------------------------------------------------------| 
G|---------------------------------------------------------------| 
D|---------------------------------------------------------------| 
A|-------------------10---9---7---5---7---7---7---7--------------| 
E|---------------------------------------------------------------| 

e|---------------------------------------------------------------| 
B|---------------------------------------------------------------| 
G|---------------------------------------------------------------|    
D|---------------------------------------------------------------|         
A|--10---9---7---5---7---7---7---7------------10---9---7----5----| 
E|---------------------------------------------------------------| 

e|---------------------------------------------------------------| 
B|---------------------------------------------------------------| 
G|---------------------------------------------------------------| 
D|---/7---7---7---7----4---4---4---4h5---------------------------| 
A|---------------------------------------7--7--7--7--------------| 
E|---------------------------------------------------------------| 

Fig C. 
e|---------------------------------------------------------------| 
B|---------------------------------------------------------------| 
G|---------------------------------------------------------------| 
D|---------------------------------------------------------------| 
A|-------------------10---9---7---5---7---7---7---7--------------| 
E|---------------------------------------------------------------| 

e|---------------------------------------------------------------| 
B|---------------------------------------------------------------| 
G|---------------------------------------------------------------| 
D|---------------------------------------------------------------|       
A|--10---9---7---5---7---7---7---7------------10---9---7----5----| 
E|---------------------------------------------------------------| 

e|---------------------------------------------------------------| 
B|---------------------------------------------------------------| 
G|---------------------------------------------------------------| 
D|---/7---7---7---7----4---4---4---4h5---------------------------| 
A|---------------------------------------7--7--7--7--------------| 
E|---------------------------------------------------------------| 

Fig C. 
e|---------------------------------------------------------------| 
B|---------------------------------------------------------------| 
G|---------------------------------------------------------------| 
D|---------------------------------------------------------------| 
A|-------------------10---9---7---5---7---7---7---7--------------| 
E|---------------------------------------------------------------| 

e|---------------------------------------------------------------| 
B|---------------------------------------------------------------| 
G|---------------------------------------------------------------| 
D|---------------------------------------------------------------|       
A|--10---9---7---5---7---7---7---7------------10---9---7----5----| 
E|---------------------------------------------------------------| 

e|---------------------------------------------------------------| 
B|---------------------------------------------------------------| 
G|---------------------------------------------------------------| 
D|---/7---7---7---7----4---4---4---4h5---------------------------| 
A|---------------------------------------7--7--7--7--------------| 
E|---------------------------------------------------------------| 

Fig C. 
e|---------------------------------------------------------------| 
B|---------------------------------------------------------------| 
G|---------------------------------------------------------------| 
D|---------------------------------------------------------------| 
A|-------------------10---9---7---5---7---7---7---7--------------| 
E|---------------------------------------------------------------| 

e|---------------------------------------------------------------| 
B|---------------------------------------------------------------| 
G|---------------------------------------------------------------| 
D|---------------------------------------------------------------|       
A|--10---9---7---5---7---7---7---7------------10---9---7----5----| 
E|---------------------------------------------------------------| 

e|---------------------------------------------------------------| 
B|---------------------------------------------------------------| 
G|---------------------------------------------------------------| 
D|---/7---7---7---7----4---4---4---4h5---------------------------| 
A|---------------------------------------7--7--7--7--------------| 
E|---------------------------------------------------------------| 

Fig C. 
e|---------------------------------------------------------------| 
B|---------------------------------------------------------------| 
G|---------------------------------------------------------------| 
D|---------------------------------------------------------------| 
A|-------------------10---9---7---5---7---7---7---7--------------| 
E|---------------------------------------------------------------| 

e|---------------------------------------------------------------| 
B|---------------------------------------------------------------| 
G|---------------------------------------------------------------| 
D|---------------------------------------------------------------|       
A|--10---9---7---5---7---7---7---7------------10---9---7----5----| 
E|---------------------------------------------------------------| 

e|---------------------------------------------------------------| 
B|---------------------------------------------------------------| 
G|---------------------------------------------------------------| 
D|---/7---7---7---7----4---4---4---4h5---------------------------| 
A|---------------------------------------7--7--7--7--------------| 
E|---------------------------------------------------------------| 

3:42 Fig D. 
e|---------------------------------------------------------------| 
B|---------------------------------------------------------------| 
G|---------------------------------------------------------------| 
D|-----9-9-9-9-9-9-9-9-9-9-9-9-9-7-7-7---------------------------| 
A|-----7-7-7-7-7-7-7-7-7-7-7-7-7-5-5-5---------------------------| 
E|---------------------------------------------------------------| 

Fig A. 
e|---------------------------------------------------------------| 
B|---------------------------------------------------------------| 
G|---------------------------------------------------------7-----|  
D|---7h9---9----5--7--7---4--5--5-----7--9--9---4h5p4----------4-| 
A|---------------------------------------------------------------| 
E|---------------------------------------------------------------|  
                                                                        x2 
e|---------------------------------------------------------------| 
B|---------------------------------------------------------------| 
G|---------------------------------------------------------------|  
D|---7h9---9----5--7--7---4--5--5-----7--9--9---4h5p4------------| 
A|----------------------------------------------------------7----| 
E|---------------------------------------------------------------| 

Fig B. 
e|---------------------------------------------------------------| 
B|---------------------------------------------------------------| 
G|---------------------------------------------------------------| 
D|---/9----9-9-9-9-9-9-9-9-9-9-9------7--7-7-7-------------------| 
A|---/7----7-7-7-7-7-7-7-7-7-7-7------5--5-5-5-------------------| 
E|---------------------------------------------------------------| 

Fig E. 
e|---------------------------------------------------------------| 
B|---------------------------------------------------------------| 
G|------------------------7h9-------------------------------7----| 
D|--7--9--9----7h9--9h12-------7h9------7--7--9-------7h9-----~9-| 
A|-----------------------------------------------7h9-------------| 
E|---------------------------------------------------------------| 

Fig B. 
e|---------------------------------------------------------------| 
B|---------------------------------------------------------------| 
G|---------------------------------------------------------------| 
D|---/9----9-9-9-9-9-9-9-9-9-9-9------7--7-7-7-------------------| 
A|---/7----7-7-7-7-7-7-7-7-7-7-7------5--5-5-5-------------------| 
E|---------------------------------------------------------------| 

5:01 Outro 
e|---------------------------------------------------------------| 
B|---------------------------------------------------------------| 
G|---------------------------------------------------------------| 
D|-----9--------9------9-------9-----------9---------------------| 
A|-----7--------7------7-------7-----------7---------------------| 
E|---------------------------------------------------------------| 


*********************************** 

| /   Slide up 
| h   Hammer-on 
| p   Pull-off 
| ~   Vibrato 

*********************************** 
		  

See also:

tabs Deep Purple - Deep Purple - Smoke On The Water tabs Ira! - Vitrine Viva tabs Ira! - Eu Quero Sempre Mais (Com Pitty, intro) tabs Deep Purple - Smoke On The Water (Easy Intro) tabs Deep Purple - Money Talks tabs Deep Purple - Mistreated
e-chords

Other versions:

tabs My Sleeping Karma - Shiva
auto scroll beats size up size down change color hide chords drawings
tab show chords e-chords YouTube Clip e-chords hide all tabs e-chords go to top tab

share