My Chemical Romance

home > My Chemical Romanc...

Dead Tab

My Chemical Romance

Difficulty: IntermediateIntermediate

by europeu

tuner correct add songbook print version text version save to e-mail
chordsukulelecavacokeyboardtabbassdrummharmonicsflute Guitar Pro
chords

Dead

Year: 2006 - Album: The Black Parade

  		I. INTRO 
 
Gtr 1 
e|--------------------|---------------| 
B|--<5>~~~~~~~--------|---------------| 
G|--------------------|---------------| 
D|--------------------|---------------| 
A|--------------------|---------------| 
E|--------------------|---------------| 
Gtr 2 
e|--------------------|-------------------| 
B|--------------------|-------------------| 
G|--------------------|-------------------| 
D|--5-5-5-5-5-5-5-44--|--5-5-5-5-5-5-5-4--| 
A|--5-5-5-5-5-5-5-44--|--5-5-5-5-5-5-5-4--| 
E|--------------------|-------------------| 
 
Gtr 1 
e|-------------------|-------------------| 
B|-------------------|-------------------| 
G|-------------------|----------4-4-4-4--| 
D|--5-5-5-5-5-5-5-5--|--4-4-4-4-4-4-4-4--| 
A|--5-5-5-5-5-5-5-5--|--5-5-5-5-2-2-2-2--| 
E|--3-3-3-3-3-3-3-3--|--2-2-2-2----------| 
Gtr 2 
e|-----------------------------|-----12-10----17b-15h14p12-14h12p10-12h10p7--| 
B|--1515-15-15-15-15-15-15-12--|-----------12--------------------------------| 
G|-----------------------------|--12-----------------------------------------| 
D|-----------------------------|---------------------------------------------| 
A|-----------------------------|---------------------------------------------| 
E|-----------------------------|---------------------------------------------| 
 
Gtr 1 
e|-------------------|--------------------| 
B|-------------------|--------------------| 
G|-------------------|--5-5-5-5-/7-8-7-5--| 
D|--2-2-2-2-2-2-2-2--|--5-5-5-5-----------| 
A|--2-2-2-2-2-2-2-2--|--3-3-3-3-----------| 
E|--0-0-0-0-0-0-0-0--|--------------------| 
Gtr 2 
e|--------------12-15-15h14p12-14h12p10-----------| 
B|--15-15h13p12-------------------------12-10-12--| 
G|------------------------------------------------| 
D|------------------------------------------------| 
A|------------------------------------------------| 
E|------------------------------------------------| 
(continued) 
e|--15b-15b-15b--------------------------------------| 
B|---------------17h15p13-15h13p11-15h13p11----------| 
G|------------------------------------------12h10p9--| 
D|---------------------------------------------------| 
A|---------------------------------------------------| 
E|---------------------------------------------------| 
 
 
II. VERSE 1 
 
Gtr 1 
e|-------------------|-------------------|-------------------| 
B|-------------------|-------------------|-------------------| 
G|-------------------|-------------------|-------------------| 
D|--5----------------|----------5-5-4-4--|-------------------| 
A|--5-5-5-5-5-5-5-5--|--5-5-5-5-2-2-2-2--|--2-2-2-2-2-2-2-2--| 
E|--3-3-3-3-3-3-3-3--|--2-2-2-2----------|--0-0-0-0-0-0-0-0--| 
(continued) 
e|-------------------|2x 
B|-------------------| 
G|-------------------| 
D|--5-5-5-5-5-5-5-5--| 
A|--3-3-3-3-3-3-3-3--| 
E|-------------------| 
Gtr 2 
e|-------------------|--------------------|------------------|2x, then, 
B|--8b---------8s10--|-----------8-7-5-7--|-------------5-5--|below 
G|-(^^ this is the---|--------------------|------------------| 
D|--last note on the-|--------------------|------------------| 
A|--solo)------------|--------------------|------------------| 
E|-------------------|--------------------|------------------| 
(continued) 
e|------------5h7p5--|--------------------| 
B|---------8---------|-----3-3--5-5--7-7--| 
G|------(1st)--------|--------(2nd)-------| 
D|-------------------|--------------------| 
A|-------------------|--------------------| 
E|-------------------|--------------------| 
 
 
III. PRE-Chorus 
 
Gtr 1 
e|-------------------|-----------------| 
B|-------------------|-----------------| 
G|-------------------|--5~~--7~~-------| 
D|--7~~~~------------|--5~~--7~~-------| 
A|--7~~~~------------|--3~~--5~~-------| 
E|--5~~~~------------|-----------------| 
Gtr 2 
e|-------------------|-----------------| 
B|-------------------|-----------------| 
G|-------------------|--5--7--4--------| 
D|--7-9-7-5-7-9-7-5--|----------7-4----| 
A|-------------------|--------------5--| 
E|-------------------|-----------------| 
 
 
IV. Chorus 
 
Gtr 1 
e|--------------------|--------------------|--------------------| 
B|--------------------|--------------------|--------------------| 
G|--1212121212121212--|--1111111111111111--|--1414141412121212--| 
D|---x-x-x-x-x-x-x-x--|---x-x-x-x-x-x-x-x--|---x-x-x-x-x-x-x-x--| 
A|--1010101010101010--|---9-9-9-9-9-9-9-9--|--1212121210101010--| 
E|--------------------|--------------------|--------------------| 
(continued) 
e|--------------------|2x 
B|--------------------| 
G|--1616171614141414--| 
D|---x-x-x-x-x-x-x-x--| 
A|--1414151412121212--| 
E|--------------------| 
Gtr 2 
e|------------|------------|------------|------------|2x 
B|------------|------------|------------|------------| 
G|------------|--44444444--|--55555555--|--88887777--| 
D|--55555555--|--44444444--|--55555555--|--88887777--| 
A|--55555555--|--22222222--|--33333333--|--66665555--| 
E|--33333333--|------------|------------|------------| 
 
 
V. PRE-VERSE 
 
Gtr 1 
e|-------------------|---------------------| 
B|-------------------|---------------------| 
G|-------------------|---------------------| 
D|--5----------------|--5-5~~~~~~----------| 
A|--5----------------|--5------------------| 
E|--3----------------|--3------------------| 
Gtr 2 
e|-------------------|----------------<5>--| 
B|-------------------|---------------------| 
G|-------------------|---------------------| 
D|--5-5-5-5-5-5-5-4--|--5-5-5-5-5-5-5------| 
A|--5-5-5-5-5-5-5-4--|--5-5-5-5-5-5-5------| 
E|--3----------------|--3------------------| 
 
 
VI. VERSE 2 
 
Gtr 1 
e|-------------------|-------------------|-------------------| 
B|-------------------|-------------------|-------------------| 
G|-------------------|-------------------|-------------------| 
D|--5----------------|----------5-5-4-4--|-------------------| 
A|--5-5-5-5-5-5-5-5--|--5-5-5-5-2-2-2-2--|--2-2-2-2-2-2-2-2--| 
E|--3-3-3-3-3-3-3-3--|--2-2-2-2----------|--0-0-0-0-0-0-0-0--| 
Gtr 2 
e|-----------------------|--------------------|-----------------------| 
B|-----------------------|--------------------|-----------------------| 
G|--x-12-x-12-x-12-x-12--|--x-11111111111111--|--x-12-x-12-x-12-x-12--| 
D|--x--x-x--x-x--x-x--x--|--x--x-x-x-x-x-x-x--|--x--x-x--x-x--x-x--x--| 
A|--x-10-x-10-x-10-x-10--|--x--9-9-9-9-9-9-9--|--x-10-x-10-x-10-x-10--| 
E|-----------------------|--------------------|-----------------------| 
Then,  
Both Guitars 
e|-------------------| 
B|-------------------| 
G|-------------------| 
D|--5-5-5-5-5-5-5-5--| 
A|--3-3-3-3-3-3-3-3--| 
E|-------------------| 
 
Gtr 1 
e|-------------------|-------------------|-------------------| 
B|-------------------|-------------------|-------------------| 
G|-------------------|-------------------|-------------------| 
D|----5---5---5---5--|----------5-5-4-4--|-------------------| 
A|----5---5---5---5--|--5-5-5-5-2-2-2-2--|--2-2-2-2-2-2-2-2--| 
E|--3-3-3-3-3-3-3-3--|--2-2-2-2----------|--0-0-0-0-0-0-0-0--| 
Gtr 2 
e|-----------------------|--------------------|-------------------| 
B|-----------------------|--------------------|-------------------| 
G|--x-12-x-12-x-12-x-12--|--x-11111111111111--|--x-9-x-9-x-9-x-9--| 
D|--x--x-x--x-x--x-x--x--|--x--x-x-x-x-x-x-x--|--x-x-x-x-x-x-x-x--| 
A|--x-10-x-10-x-10-x-10--|--x--9-9-9-9-9-9-9--|--x-7-x-7-x-7-x-7--| 
E|-----------------------|--------------------|-------------------| 
Then, 
Gtr 1 
e|-------------------| 
B|-------------------| 
G|-------------------| 
D|--5-5-5-5-5-5-5-5--| 
A|--3-3-3-3-3-3-3-3--| 
E|-------------------| 
Gtr 2 
e|----------------------| 
B|--------10--------10--| 
G|-----12--------12-----| 
D|--12--------12--------| 
A|----------------------| 
E|----------------------| 
 
 
VII. BRIDGE 
 
Both Guitars 
e|-----| 
B|-----|then, some weird effects (trumpets, etc.) 
G|-----|fills in the bridge and I?m sorry, figure that out 
D|--7--|yourself ;p;p;p 
A|--7--| 
E|--5--| 
 
 
Then, 
Gtr 1 
e|--------------------|------------------------------------| 
B|--------------------|------------------------------------| 
G|--1617161716171617--|--19191919191919192121212123232323--| 
D|---x-x-x-x-x-x-x-x--|---x-x-x-x-x-x-x-x-x-x-x-x-x-x-x-x--| 
A|--1415141514151415--|--17171717171717171919191921212121--| 
E|--------------------|------------------------------------| 
Gtr 2 
e|--------------------|------------------------------------| 
B|--------------------|------------------------------------| 
G|--------------------|------------------------------------| 
D|--------------------|--\\\pickslide\\\-------------------| 
A|--------------------|-------------------\\\pickslide\\\--| 
E|--------------------|------------------------------------| 
 
 
VIII. SOLO (OMG!) 
I?m not so sure if this is correct, but I tried my best here. 
I?ll punch my face if someone says Gtr 1 is wrong here. LOL!! 
 
Gtr 1 
e|------------|------------|------------|------------|2x 
B|------------|------------|------------|------------| 
G|------------|--44444444--|--55555555--|--88887777--| 
D|--55555555--|--44444444--|--55555555--|--88887777--| 
A|--55555555--|--22222222--|--33333333--|--66665555--| 
E|--33333333--|------------|------------|------------| 
Gtr 2 
e|------------------------|--------------------| 
B|------------------------|--------------------| 
G|---------------------9--|----------------12--| 
D|----------------9-12----|--12-9----12-12-----| 
A|--10-10-1010-12---------|-------12-----------| 
E|------------------------|--------------------| 
(continued) 
e|-----------------------------------------------------------| 
B|--|      left speaker       |--|     right speaker      |--| 
G|-----------------------------------------------------------| 
D|-----------9-------7-9-7-5~~------------9-------7-9-7------| 
A|--12p10-10---12p10-------------12p10-10---12p10-------5~~--| 
E|-----------------------------------------------------------| 
(continued) 
e|-------------------------| 
B|--12p10p8----------------| 
G|----------11p9p7---------| 
D|-----------------5--5~~--| 
A|-------------------------| 
E|-------------------------| 
(continued) 
e|-----------------------------|--------7-------------7-------------| 
B|-----------------------------|------8---8---------8---8~~~--------| 
G|--7-7--7-7--7-7--7-7-5-------|--7h9---------5h7h9-----------7~~~--| 
D|--7----7----7-7--------8--5--|------------------------------------| 
A|-----------------------------|------------------------------------| 
E|-----------------------------|------------------------------------| 
(continued) 
e|--17p15t12-19p17t15-17p15t12-19p17t15-17p15t12-19p17t15-17p15t12-19p17t15--| 
B|---------------------------------------------------------------------------| 
G|-----------------------------very very very--------------------------------| 
D|-------------------------------fast part-----------------------------------| 
A|---------------------------------------------------------------------------| 
E|---------------------------------------------------------------------------| 
(continued) 
e|--20p15t12-17p15t12-19p17t15-17p15t12--19-17-15-15-17-15--| 
B|----------------------------------------------------------| 
G|----------------------------------------------------------| 
D|----------------------------------------------------------| 
A|----------------------------------------------------------| 
E|----------------------------------------------------------| 
 
End the solo on: 
Gtr 1 
e|--------|---------------------------------| 
B|--------|---------------------------------| 
G|--------|--((whistle))---\\\pickslide\\\--| 
D|--5-----|---------------------------------| 
A|--5-----|---------------------------------| 
E|--3-----|---------------------------------| 
Gtr 2 
e|--15~~--|---------------------------------| 
B|--------|---------------------------------| 
G|--------|---------------------------------| 
D|--------|----------------\\\pickslide\\\--| 
A|--------|---------------------------------| 
E|--------|---------------------------------| 
 
 
IX. OUTRO 
 
Gtr 1 
e|------------------|------------------|------------------|----------------|4x 
B|------------------|------------------|------------------|----------------| 
G|--12-9-7-12-7--7--|--12-9-7-14-9--9--|--12-9-7-12-9--9--|--7-9-12-14-14--| 
D|---x-x-x--x-x--x--|---x-x-x--x-x--x--|---x-x-x--x-x--x--|--x-x--x--x--x--| 
A|--10-7-5-10-5--5--|--10-7-5-12-7--7--|--10-7-5-10-7--7--|--5-7-10-12-12--| 
E|------------------|------------------|------------------|----------------| 
Gtr 2 
e|------------|------------|------------|------------|4x 
B|------------|------------|------------|------------| 
G|------------|--44444444--|--55555555--|--77777777--| 
D|--55555555--|--44444444--|--55555555--|--77777777--| 
A|--55555555--|--22222222--|--33333333--|--55555555--| 
E|--33333333--|------------|------------|------------| 
 
End on: 
Gtr 1 
e|---------------------|-----| 
B|---------------------|-----| 
G|---------------------|-----| 
D|--5------------------|--5--| 
A|--5------------------|--5--| 
E|--3------------------|--3--| 
Gtr 2 
e|----------------<5>--|-----| 
B|----------------<5>--|-----| 
G|---------------------|-----| 
D|--5-5-5-5-5-5-5------|--5--| 
A|--5-5-5-5-5-5-5------|--5--| 
E|--3------------------|--3--| 
 
 

	  

Search Paypal
auto scroll beats size up size down change color hide chords drawings
tab show chords e-chords YouTube Clip e-chords hide all tabs e-chords go to top tab