Mustard Plug

Mr.Smiley

Mustard Plug

tabs

by  ITALIAGURL

save to print version add songbook text version e-mail correct tuner
chordsukulelecavacokeyboardtabbassdrumsharmonicaflute Guitar Pro
close

there isn't a video lesson for this song

chords

Mr.Smiley

	  		they really should have ska as a style!!!they really should!! 
cause this song and band is really good and deserves a real genre... 
well i think so anyways...HOPE YOU LIKE!:P 
 
Mustard Plug 
Mr.Smiley 
regular notes...EADGB and high E(e) 
Intro: 
e------------9-9~-------1010~-----77~ x2 
B----77~-----1010~------1212~-----88~ 
G----77~---------------------------- 
D---------7~--------9~---------5~--- 
A-5~-------------------------------- 
E----------------------------------- 
  D   A   Bm  G x2 
e-5---5---7---3 
B-7---5---7---3 
G-7---6---7---4 
D-7---7---9---5 
A-5---7---9---5 
E-5---5---7---3 
 
Verse: 
 
Same fingerings for the chords as in the intro 
D A Bm G x4 
 
Chorus: 
 
Same chords, but ska fingerings. You could always just play the same 
chords and just play the top 4 strings harder. 
 
  D  A  Bm G 
e-2--5--7--3 x4 
B-3--5--7--3 
G-2--6--7--4 
D-4--7--9--5 (optional, you don't have to play 
A-----------  the notes on the 
E-----------  D string) 
 
Bridge: 
 
Bass solo for 4 bars then 
e------------------------- 
B------------------------- 
G-7~--6~--7~--4~--2~------ (this is played w/ horns) 
D---------------------2-0~ 
A------------------------- 
E------------------------- 
and D A Bm G w/ horn solo on top for 8 bars 
 
End: 
 
in the end everything stops and the bass plays 
B-------- 
G-------- 
D-0-0-54~ 
A-------- 
E-------- 
Intro 
Verse #1 
Chorus 
Bridge 
Verse #2 
Chorus x2 
End 
 
HOPE YOU ENJOYEDD! yours truely, italiagurl 
(ps. dont blame me for the style i put it in!!) 

		  

Full key step upFull key step up
Half key step upHalf key step up
Half key step downHalf key step down
Full key step downFull key step down
auto scroll beats size up size down change color hide chords drawings
tab show chords e-chords YouTube Clip e-chords hide all tabs e-chords go to top tab

share