Muse

home > Muse

Starlight Tab

Muse

Difficulty: ExpertExpert

by europeu

tuner correct add songbook print version text version save to e-mail
chordsukulelecavacokeyboardtabbassdrumsharmonicsflute Guitar Pro
chords

Starlight

Year: 2006 - Album: Haarp CD/DVD Set

  		Verse 1 
(piano) 
Starts on bar 5 repeats twice 
then on bar 28 (twice through) 
Part 1 
e--11----11-12----12-11--11---11-12----12-11----| 
B----12-------14-------14--12------12--------14-| 
G------11-------13-----------13------13---------| 
D-----------------------------------------------| 
A-----------------------------------------------| 
E-----------------------------------------------| 
 
after second piano part 
Part 2 
e--7---7---7---7---7---7--7---7----7---7---7----| 
B----7---7---5---5---5--4---4---4/5--5---5------| 
G-----------------------------------------------| 
D-----------------------------------------------| 
A-----------------------------------------------| 
E-----------------------------------------------| 
 
pre Chorus 
 
e-----------------------------------------------| 
B-----------------------------------------------| 
G--6-6-66x----------8-8-88x---------------------| 
D--6-6-66x-4-4-4-44-8-8-88x-6-6-6-66-7-7-77x----| 
A--4-4-44x-4-4-4-44-6-6-66x-6-6-6-66-7-7-77x----| 
E----------2-2-2-22---------4-4-4-44-5-5-55x----| 
 
e-----------------------------------------------| 
B-----------------------------------------------| 
G-------------------8-8-8-88--------------------| 
D--2-2-2-22-7-7-77x-8-8-8-88--------------------| 
A--2-2-2-22-7-7-77x-6-6-6-66--------------------| 
E--0-0-0-00-5-5-55x-----------------------------| 
 
Chorus 
 
e--7-------7-------6-----6----7----7------------| 
B----9---9---9---9---9-----8----9----9----------| 
G------8-------8-------8-----8----9----9--------| 
D-----------------------------------------------| 
A-----------------------------------------------| 
E-----------------------------------------------| 
(im not sure how accurate this is the delay did'nt help) 
e------7----------------------------------------| 
B----7---7---5---5------------------------------| 
G--11------9---9--------------------------------| repeat 3 times 
D-----------------------------------------------| 
A-----------------------------------------------| 
E-----------------------------------------------| 
 
(last time through Chorus 
e--7-------7-------6-----6----7----7----9----9-----| 
B----9---9---9---9---9-----8----9----9---11---11---| 
G------8-------8-------8-----8----9----9---11---11-| 
D--------------------------------------------------| 
A--------------------------------------------------| 
E--------------------------------------------------| 
(on the last 2 arpeggios 2nd guitar starts) 
e-----------------------------------------------| 
B------------------(bend this note slowly to 8)-| 
G-----------------6-6-6-6-6-6-8-----------------| 
D-----------------------------------------------| 
A--7-7-7-7-7-7-7-7------------------------------| 
E-----------------------------------------------| 
 
 
Verse 2 - repeat  playing part 1 once and part two straight after. 
 
pre Chorus 
 
e-----------------------------------------------| 
B-------------------8-8-88x---------------------| 
G--6-6-66x----------8-8-88x---------------------| 
D--6-6-66x-4-4-4-44-8-8-88x-9-6------7-7-77x----| 
A--4-4-44x-4-4-4-44-6-6-66x-----6--6-7-7-77x----| 
E----------2-2-2-22------------------5-5-55x----| 
 
 
e-----------------------------------------------| 
B-------------------8-8-8-88--------------------| 
G-------------------8-8-8-88--------------------| 
D--2-2-2-22-7-7-77x-8-8-8-88--------------------| 
A--2-2-2-22-7-7-77x-6-6-6-66--------------------| 
E--0-0-0-00-5-5-55x-----------------------------| 
 
Chorus 
 
e-------------------------------------------| 
B--4-4-4-4-8-8-8-8-9-9-9-9------------------| 
G--4-4-4-4-8-8-8-8-9-9-9-9-8-8-8-8----------| repeat x 2 
D--6-6-6-6-8-8-8-8-9-9-9-9-9-9-9-9----------| 
A--6-6-6-6-6-6-6-6-7-7-7-7-9-9-9-9----------| 
E--4-4-4-4-----------------7-7-7-7----------| 
 
e---------------------------------------------| 
B--44444444-88888888-99999999-----------------| 
G--44444444-88888888-99999999-88888888--------| 
D--66666666-88888888-99999999-99999999--------| 
A--66666666-66666666-77777777-99999999--------| 
E--44444444-66666666-77777777-77777777--------| 
 
e----------------------------------------------| 
B--44444444-88888888-99999999------------------| 
G--44444444-88888888-99999999-1111111111111111-| 
D--66666666-88888888-99999999-1111111111111111-| 
A--66666666-66666666-77777777-9-9-9-9-9-9-9-9--| 
E--44444444-66666666-77777777------------------| 
 
Back to part 1 of the verse as the ending. 
 

	  

Search Paypal
auto scroll beats size up size down change color hide chords drawings
tab show chords e-chords YouTube Clip e-chords hide all tabs e-chords go to top tab