Murray Gold

home > Murray Gold

A Long Song Tab

Murray Gold

Difficulty: nolevelnolevel

by abelamin

tuner correct add songbook print version text version save to e-mail
chordsukulelecavacokeyboardtabbassdrumsharmonicsflute Guitar Pro
chords

A Long Song

  		
e|--1-0-1-0-3-1-0---------0------0-1-0---------------------------------------| 
B|----------------3--------1-----------0-------------------------------------| 
G|---------------------------------------------------------------------------| 
D|---------------------------------------------------------------------------| 
A|---------------------------------------------------------------------------| 
E|---------------------------------------------------------------------------| 

e|-----------------------5---------------------------------------------------| 
B|------0-3-1-0-----------3--------------------------------------------------| 
G|----2---------2------------------------------------------------------------| 
D|---------------------------------------------------------------------------| 
A|---------------------------------------------------------------------------| 
E|---------------------------------------------------------------------------| 
	  

Search Paypal
auto scroll beats size up size down change color hide chords drawings
tab show chords e-chords YouTube Clip e-chords hide all tabs e-chords go to top tab