Muddy Waters

Got My Mojo Working

Muddy Waters

tabs Beginner beginner

by  EDUCASTILHO

save to print version add songbook text version e-mail correct tuner
chordsukulelecavacokeyboardtabbassdrumsharmonicaflute Guitar Pro
close

there isn't a video lesson for this song

chords

Got My Mojo Working

	  		


Gtr I (E A D G B E) - 'Jimmy Rogers - Electric Guitar' 


 Intro 
  Q=222(8=s8) 
  N.C. 
 4/4 
  Gtr I 
  W           E     +Q.    H           W          H    E E E  E 
|----------|-------------------------|----------|-----------------| 
|----------|-10b12-(10)---10b10.5----|----------|-----------------| 
|----------|-------------------------|----------|--------2---(0)--| 
|----------|-------------------------|----------|--------2--------| 
|----------|-------------------------|----------|-----------------| 
|----------|-------------------------|----------|-----------------| 


  Q  Q  H      Q  E E Q  Q     Q  E E Q  Q     Q  E E Q  Q     Q  Q  E Q  E 
|------------|--------------|---------------|---------------|----------------| 
|------------|-----------3--|------------3--|------------3--|----------2-----| 
|-2--0-------|------2s4-----|-\2----2s4-----|-\2----2s4-----|-\2--2----2--0--| 
|------------|--------------|---------------|---------------|----------------| 
|------------|--------------|---------------|---------------|----------------| 
|------------|--------------|---------------|---------------|----------------| 


  Q  Q  Q  E E   +H     H      Q  Q     +E   Q.      Q  Q  Q  Q 
|--------------|-------------|---------------------|--------------| 
|--------------|-------------|---------------------|--------------| 
|-2--0---------|-------------|----2b4===(2)r-2b4---|-2--0---------| 
|-------2----2-|-(2)---------|---------------------|-------2--0---| 
|--------------|-------------|---------------------|--------------| 
|--------------|-------------|---------------------|--------------| 


  Q  E E Q  Q     Q  E E Q  Q     Q  E E Q  Q     Q  Q  E E Q 
|--------------|---------------|---------------|----------------| 
|-----------3--|------------3--|------------3--|----------------| 
|------2s4-----|-\2----2s4-----|-\2----2s4-----|-\2-------4s2---| 
|-2------------|---------------|---------------|----------------| 
|--------------|---------------|---------------|----------------| 
|--------------|---------------|---------------|----------------| 


  H    Q  Q    H    Q  Q    Q   Q  +E  E Q    Q  Q  +E  E Q 
|------------|------------|-----------------|-----------------| 
|---------0--|------------|------------3h5--|-3---------------| 
|-2----2-----|-2----2--0--|----/4--(4)------|----4--(4)-4s2---| 
|------------|------------|-----------------|-----------------| 
|------------|------------|-----------------|-----------------| 
|------------|------------|-----------------|-----------------| 


  Q  E E Q  Q     H    E E Q    Q  Q  Q  Q    +H     H 
|--------------|--------------|-------------|-------------|| 
|-----------3--|--------------|-------------|-------------|| 
|------2s4-----|-\2----2p0----|-------------|-------------|| 
|-2------------|-----------2--|-2-----------|-------------|| 
|--------------|--------------|----0--2--2--|-(2)---------|| 
|--------------|--------------|-------------|-------------|| 


   1st - 4th Verses 
    $ 
    N.C. 
    H      Q.   E   W          Q  Q     +E   Q.     Q  Q  Q  Q 
||----------------|----------|--------------------|-------------| 
||o---------------|----------|--------------------|-------------| 
||--2b4----2----2-|----------|----2b4===(2)r-2----|-2--0--------| 
||----------------|----------|--------------------|----------2--| 
||o---------------|----------|--------------------|-------------| 
||----------------|----------|--------------------|-------------| 


  Q  E E Q  Q     Q  E E Q  Q     Q  E E Q  Q     Q  Q  H 
|--------------|---------------|---------------|-------------| 
|-----------3--|------------3--|------------3--|-------------| 
|------2s4-----|-\2----2s4-----|-\2----2s4-----|-\2----------| 
|-2------------|---------------|---------------|-------------| 
|--------------|---------------|---------------|-------------| 
|--------------|---------------|---------------|-------------| 


  W          W          Q  Q     +E   E Q    Q  Q  Q  Q 
|----------|----------|--------------------|--------------| 
|----------|----------|--------------------|--------------| 
|----------|----------|----2b4===(2)r-2p0--|-2--0---------| 
|----------|----------|--------------------|-------2--0---| 
|----------|----------|--------------------|--------------| 
|----------|----------|--------------------|--------------| 


  Q  E E Q  Q     Q  E E Q  Q     Q  E E Q  Q     Q  Q  H 
|--------------|---------------|---------------|-------------| 
|-----------3--|------------3--|------------3--|-------------| 
|------2s4-----|-\2----2s4-----|-\2----2s4-----|-\2----------| 
|-2------------|---------------|---------------|-------------| 
|--------------|---------------|---------------|-------------| 
|--------------|---------------|---------------|-------------| 


  ~ 
  H    Q  Q    H      Q  E E   Q  Q  +E  E E E   Q  Q  Q  Q 
|------------|---------------|-----------------|--------------| 
|------------|---------------|-----------------|--------------| 
|-2----2--0--|-2b4----2--0---|----0--(0)-2s4-0-|-2--0---------| 
|------------|-------------2-|-2---------------|-------2--0---| 
|------------|---------------|-----------------|--------------| 
|------------|---------------|-----------------|--------------| 


                                                To Coda 
  Q  E E Q  Q     Q.   E   +H       Q.   E Q  Q    +W 
|--------------|------------------|--------------|----------|| 
|-----------3--|------------------|--------------|---------o|| 
|------2s4-----|-\2----2b4-(2)----|--------------|----------|| 
|-2------------|------------------|-2----0-------|----------|| 
|--------------|------------------|--------2--2--|-(2)-----o|| 
|--------------|------------------|--------------|----------|| 


 Chorus 
  N.C. 
  H      Q  E E   Q  Q  Q  E E   Q  Q   E E E E   +Q   Q  E E Q 
|---------------|--------------|----------------|-----------------| 
|---------------|--------------|----3-----------|-----------------| 
|-2b4---------2-|-------0----2s|=4-----\2-----2-|-(2)--0------2---| 
|---------------|----2---------|----------------|-----------2-----| 
|---------------|--------------|----------------|-----------------| 
|---------------|--------------|----------------|-----------------| 


  H      +Q.   E   H    E E E E   Q  Q  Q  E E   +H     Q  Q 
|----------------|--------------|--------------|---------------| 
|----------------|--------------|----3---------|---------------| 
|-2b4----(2)---2-|--------0---2s|=4-----2----2-|-(2)-------2---| 
|----------------|--------------|--------------|---------------| 
|----------------|--------------|--------------|---------------| 
|----------------|--------------|--------------|---------------| 


  H      +E  E E E   H    Q  E E      +H     Q.   E    W 
|------------------|----------------|----------------|------| 
|------------------|----------------|--------3-------|------| 
|-2b4----(2)-2---2-|-2---------2b4==|=(2)---------2r-|------| 
|------------------|----------------|----------------|------| 
|------------------|----------------|----------------|------| 
|------------------|----------------|----------------|------| 


  H    Q  E E   H    Q  E E     +W           Q  Q  H 
|-------------|---------------|------------|------------| 
|-------------|---------------|------------|------------| 
|-----------2-|-----------2b4-|-(2)--------|-2----------| 
|-------------|---------------|------------|------------| 
|-------------|---------------|------------|------------| 
|-------------|---------------|------------|------------| 


  H    Q  E E   +Q   Q  H      Q  Q     +E   Q.     Q  Q  Q  Q 
|-------------|--------------|--------------------|--------------| 
|-------------|--------------|---------------3----|--------------| 
|------2--1-2-|-(2)--2-------|----2b4===(2)r------|-2--1---------| 
|-------------|--------------|--------------------|-------2------| 
|-------------|--------------|--------------------|--------------| 
|-------------|--------------|--------------------|--------------| 


                                      D.S. al Coda 
  H    Q    Q    H    E E Q    H    Q  Q    Q  H. 
|--------------|-------------|------------|-----------|| 
|-----------3--|-------------|------------|-----------|| 
|------2b4-----|-2----2-0----|------------|----2------|| 
|--------------|----------2--|-2----------|-----------|| 
|--------------|-------------|------2--2--|-----------|| 
|--------------|-------------|------------|-----------|| 


 Outro 
  & 
   Q  E E Q  Q    Q  Q  Q  E E     Q  Q  Q  E E  5x Q  Q  Q  Q 
|---------------|--------------||----------------||--------------| 
|-----3---------|----3---------||o----3---------o||----3---------| 
|-/4----4s2--0--|-4-----2----2s||==4-----2----2s=||=4-----2------| 
|---------------|--------------||----------------||--------------| 
|---------------|--------------||o--------------o||--------------| 
|---------------|--------------||----------------||--------------| 


  H      Q  Q    Q  Q  H      H      Q  Q 
|--------------|------------|---------------| 
|--------------|------------|---------------| 
|-2b4----2--0h=|=2--0-------|-2b4----2--0h==| 
|--------------|------------|---------------| 
|--------------|------------|---------------| 
|--------------|------------|---------------| 


  Q  Q  H       Q  Q   Q  E E   Q  Q  Q  E E 
|------------|----------------|---------------*| 
|------------|-----3----------|----3----------*| 
|-2--0-------|-/4-----\2----2s|=4-----2----2s=*| 
|------------|----------------|---------------*| 
|------------|----------------|---------------*| 
|------------|----------------|---------------*| 


Duration Legend 
--------------- 
W - whole; H - half; Q - quarter; E - 8th; S - 16th; T - 32nd; X - 64th; a - acciaccatura 
+ - note tied to previous; . - note dotted; .. - note double dotted 
Uncapitalized letters represent notes that are staccato (1/2 duration) 
Irregular groupings are notated above the duration line 
Duration letters will always appear directly above the note/fret number it represents the 
duration for.  Duration letters with no fret number below them represent rests.  Multi- 
bar rests are notated in the form Wxn, where n is the number of bars to rest for.  Low 
melody durations appear below the staff 

Tablature Legend 
---------------- 
 h   - hammer-on 
 p   - pull-off 
 b   - bend 
 pb  - pre-bend 
 r   - bend release (if no number after the r, then release immediately) 
 /\  - slide into or out of (from/to "nowhere") 
 s   - legato slide 
 S   - shift slide 
  - natural harmonic 
n  - artificial harmonic 
n(n) - tapped harmonic 
 ~   - vibrato 
 tr  - trill 
 T   - tap 
 TP  - trem. picking 
 PM  - palm muting 
\n/  - tremolo bar dip; n = amount to dip 
 \n  - tremolo bar down 
 n/  - tremolo bar up 
/n\  - tremolo bar inverted dip 
 =   - hold bend; also acts as connecting device for hammers/pulls 
 <>  - volume swell (louder/softer) 
 x   - on rhythm slash represents muted slash 
 o   - on rhythm slash represents single note slash 

Misc Legend 
----------- 
 |  - bar 
||  - double bar 
||o - repeat start 
o|| - repeat end 
*|  - double bar (ending) 
 :  - bar (freetime) 
 $  - Segno 
 &  - Coda 
Tempo markers -  = BPM(8/16=s8/s16), where s8 = swing 8ths, s16 = swing 16ths 
		  

auto scroll beats size up size down change color hide chords drawings
tab show chords e-chords YouTube Clip e-chords hide all tabs e-chords go to top tab

share