Mr. Big

Baba O Riley

Mr. Big

tabs Expert expert

by  MARCNAGEL

save to print version add songbook text version e-mail correct tuner
chordsukulelecavacokeyboardtabbassdrumsharmonicaflute Guitar Pro
close

there isn't a video lesson for this song

chords

Baba O Riley

	  		(riff) 
E |---------------------------------------------------------------------| 
B |---------------------------------------------------------------------| 
G |-----------9-9--------------9-9---------------9-9--------------------| 
D |------9-9------9-9------9-9-----9-9------9-9------9-9----------------| 
A |--7-7---------------7-7--------------7-7-----------------------------| 
E |---------------------------------------------------------------------| 

E |-----------------------------------------------------| 
B |--------------------12-12-10-10-9-9------------------| 
G |---------9-9------------------------------9-9--------| 
D |-------------9-9---------------------9-9-------------| 
A |-----7-7---------------------------------------------| 
E |-----------------------------------------------------| 

(riff) 
E |----------------------------------------------------------------------| 
B |----------------------------------------------------------------------| 
G |---9---------------------------9-9----------------9-9-----------------| 
D |---9--------9----7------------------9-9------9-9-------9-9------------| 
A |---7--------9----7-----------------------7-7--------------------------| 
E |------------7----5----------------------------------------------------| 

(riff) 
E |-----------------------------------------------------------| 
B |-----------------------------------------------------------| 
G |-----------4-4-------------4-4---------------4-4-----------| 
D |-------4-4-----4-4-----4-4-----4-4------4-4------4-4-------| 
A |---2-2-------------2-2--------------2-2--------------------| 
E |-----------------------------------------------------------| 

E |---12~~12~~-12b14r12--12-------------------12-14-12-14b15r14--12-------------| 
B |--------------------------12-12h14-14-14~~-----------------------------------| 
G |-----------------------------------------------------------------------------| 
D |-----------------------------------------------------------------------------| 
A |-----------------------------------------------------------------------------| 
E |-----------------------------------------------------------------------------| 

E |-----------------------------------------------------------------------------| 
B |----15b17-14-12~~-14-12-14-12~~--------12---------12-------------------------| 
G |----------------------------------14b16-----14b16------14b16~~---------------| 
D |-----------------------------------------------------------------------------| 
A |-----------------------------------------------------------------------------| 
E |-----------------------------------------------------------------------------| 

E |-----------------------------------------------------------------------------| 
B |---4-4-4-4-4-4-4-4-4-4-4-4-4-4-4-4-4-4-4-4-4-4-4-4-4-4-4-4-4-4---------------| 
G |-----------------------------------------------------------------------------| 
D |-----------------------------------------------------------------------------| 
A |-----------------------------------------------------------------------------| 
E |-----------------------------------------------------------------------------| 

E |-----------------------------------------------------------------------------| 
B |--/16-17-19-16-17-19-16-17-19--16-17-19-16-17-19-16-17-19--------------------| 
G |-----------------------------------------------------------------------------| 
D |-----------------------------------------------------------------------------| 
A |-----------------------------------------------------------------------------| 
E |-----------------------------------------------------------------------------| 

E |-----------------------------------------------------------------------------| 
B |--16-17-19-16-17-19-16-17-19--15-17-19-15-17-19-15-17-19---------------------| 
G |-----------------------------------------------------------------------------| 
D |-----------------------------------------------------------------------------| 
A |-----------------------------------------------------------------------------| 
E |-----------------------------------------------------------------------------| 

E |-----------------------------------------------------------------------------| 
B |--16h17-16h17-16h17-16h17-16h17-16h17-16h17-16h17-16h17-16h17----------------| 
G |-----------------------------------------------------------------------------| 
D |-----------------------------------------------------------------------------| 
A |-----------------------------------------------------------------------------| 
E |-----------------------------------------------------------------------------| 

E |-----------------------------------------------------------------------------| 
B |--16h17-19p17-16h17-19p17-16h17-19p17--17h19-17h19-17h19-17h19-17h19---------| 
G |-----------------------------------------------------------------------------| 
D |-----------------------------------------------------------------------------| 
A |-----------------------------------------------------------------------------| 
E |-----------------------------------------------------------------------------| 

E |-----------------------------------------------------------------------------| 
B |---17h19-17h19-17h19--15h17-15h17-15h17-15h17-15h17-15h17-15h17-15h17--------| 
G |-----------------------------------------------------------------------------| 
D |-----------------------------------------------------------------------------| 
A |-----------------------------------------------------------------------------| 
E |-----------------------------------------------------------------------------| 

E |-----------------------------------------------------------------------------| 
B |--------------------------------12---12-14-15--14h15p14p12-------------------| 
G |--16~~~~~~~~\---/14-14-14-13--------------------------------14\13/14---------| 
D |-----------------------------------------------------------------------------| 
A |-----------------------------------------------------------------------------| 
E |-----------------------------------------------------------------------------| 

E |-----------------------------------------------------------------------------| 
B |-----------------------------------------------------------------------------| 
G |----13h14p13p11-13--11h13p11-------------------------------------------------| 
D |-------------------------------14-12-11-12-14-12-11h12p11--------------------| 
A |-------------------------------------------------------------14-12-----------| 
E |-----------------------------------------------------------------------------| 

E |-----------------------------------------------------------------------------| 
B |-----------------------------------------------------------------------------| 
G |-----------------------------------------------------------------------------| 
D |-------------------------------11-12~~~--------------------------------------| 
A |--11h12p11-----------11-12-14------------------------------------------------| 
E |------------14-12-14---------------------------------------------------------| 
		  

See also:

tabs Aerosmith - Dream On tabs Guns N' Roses - Live and Let Die tabs The Doors - People Are Strange tabs Cheap Trick - The Flame tabs Creed - With arms wide open tabs Van Halen - Pretty Woman
e-chords

Other versions:

tabs Mr. Big - Baba O Riley tabs The Who - Baba O' Riley Correct
auto scroll beats size up size down change color hide chords drawings
tab show chords e-chords YouTube Clip e-chords hide all tabs e-chords go to top tab

share