Motorpsycho

Fools Gold Tab

Motorpsycho

Difficulty: nolevelnolevel

by ubirbomfim

tuner correct add songbook print version text version save to e-mail
chordsukulelecavacokeyboardtabbassdrumsharmonicsflute Guitar Pro
close

there isn't a video lesson for this song

request
chords

Fools Gold

  		Intro 
e|-0---------------|--0--------0-------|--0---------------| 
B|-1----------0-0--|--1--------0--0-0--|--1----------0-0--| 
G|-0-------0--0-0--|--0--------0--0-0--|--0-------0--0-0--| 
D|-2-------0--0-0--|--2--------2--2-2--|--2-------0--0-0--| 
A|-0-------2--2-2--|--0--------3--3-2--|--0-------2--2-2--| 
E|----2--0-3--3-3--|------2--0---------|-----2--0-3--3-3--| 

e|-----------|------------|-----------|------------| 
B|--------3--|--0---0--0--|--------3--|--0---0--0--| 
G|--0--0--0--|--0---0--0--|--0--0--0--|--0---0--0--| 
D|--4--4-----|--2---2--2--|--4--4-----|--2---2--2--| 
A|--5--------|--3---3--3--|--5--------|--3---3--3--| 
E|-----------|------------|-----------|------------| 


Verse 
e|-0---------------|--0--------0-------|--0---------------|--0--------0-------| 
B|-1----------0-0--|--1--------0--0-0--|--1----------0-0--|--1--------0--0-0--| 
G|-0-------0--0-0--|--0--------0--0-0--|--0-------0--0-0--|--0--------0--0-0--| 
D|-2-------0--0-0--|--2--------2--2-2--|--2-------0--0-0--|--2--------2--2-2--| 
A|-0-------2--2-2--|--0--------3--3-2--|--0-------2--2-2--|--0--------3--3-2--| 
E|----2--0-3--3-3--|------2--0---------|-----2--0-3--3-3--|------2--0---------| 

e|-0---------------|--0--------0-------|--0---------------| 
B|-1----------0-0--|--1--------0--0-0--|--1----------0-0--| 
G|-0-------0--0-0--|--0--------0--0-0--|--0-------0--0-0--| 
D|-2-------0--0-0--|--2--------2--2-2--|--2-------0--0-0--| 
A|-0-------2--2-2--|--0--------3--3-2--|--0-------2--2-2--| 
E|----2--0-3--3-3--|------2--0---------|-----2--0-3--3-3--| 

e|-----------|------------|-----------|------------| 
B|--------3--|--0---0--0--|--------3--|--0---0--0--| 
G|--0--0--0--|--0---0--0--|--0--0--0--|--0---0--0--| 
D|--4--4-----|--2---2--2--|--4--4-----|--2---2--2--| 
A|--5--------|--3---3--3--|--5--------|--3---3--3--| 
E|-----------|------------|-----------|------------| 



Chorus 
e|--------2---2-----------------------------| 
B|--------0---3-------------0---0--0--0--0--| 
G|--1--x--0---2--4----------0---0--0--0--0--| 
D|--2--x--0------4----------2---2--2--2--2--| 
A|--2--x--2------2--0h2--0--3---3--3--3--3--| 
E|--------3---------------------------------| 

e|--------2---2-----------------------------| 
B|--------0---3-------------0---0--0--0--0--| 
G|--1--x--0---2--4----------0---0--0--0--0--| 
D|--2--x--0------4----------2---2--2--2--2--| 
A|--2--x--2------2--0h2--0--3---3--3--3--3--| 
E|--------3---------------------------------| 

e|--------2---2-----------------------------| 
B|--------0---3-------------0---0--0--0--0--| 
G|--1--x--0---2--4----------0---0--0--0--0--| 
D|--2--x--0------4----------2---2--2--2--2--| 
A|--2--x--2------2--0h2--0--3---3--3--3--3--| 
E|--------3---------------------------------| 

e|--------2---2-----------------------------| 
B|--------0---3-------------0---0--0--0--0--| 
G|--1--x--0---2--4----------0---0--0--0--0--| 
D|--2--x--0------4----------2---2--2--2--2--| 
A|--2--x--2------2--0h2--0--3---3--3--3--3--| 
E|--------3---------------------------------| 

Verse 
e|-0---------------|--0--------0-------|--0---------------|--0--------0-------| 
B|-1----------0-0--|--1--------0--0-0--|--1----------0-0--|--1--------0--0-0--| 
G|-0-------0--0-0--|--0--------0--0-0--|--0-------0--0-0--|--0--------0--0-0--| 
D|-2-------0--0-0--|--2--------2--2-2--|--2-------0--0-0--|--2--------2--2-2--| 
A|-0-------2--2-2--|--0--------3--3-2--|--0-------2--2-2--|--0--------3--3-2--| 
E|----2--0-3--3-3--|------2--0---------|-----2--0-3--3-3--|------2--0---------| 

e|-0---------------|--0--------0-------|--0---------------| 
B|-1----------0-0--|--1--------0--0-0--|--1----------0-0--| 
G|-0-------0--0-0--|--0--------0--0-0--|--0-------0--0-0--| 
D|-2-------0--0-0--|--2--------2--2-2--|--2-------0--0-0--| 
A|-0-------2--2-2--|--0--------3--3-2--|--0-------2--2-2--| 
E|----2--0-3--3-3--|------2--0---------|-----2--0-3--3-3--| 

e|-----------|------------|-----------|------------| 
B|--------3--|--0---0--0--|--------3--|--0---0--0--| 
G|--0--0--0--|--0---0--0--|--0--0--0--|--0---0--0--| 
D|--4--4-----|--2---2--2--|--4--4-----|--2---2--2--| 
A|--5--------|--3---3--3--|--5--------|--3---3--3--| 
E|-----------|------------|-----------|------------| 

Chorus 
e|--------2---2-----------------------------| 
B|--------0---3-------------0---0--0--0--0--| 
G|--1--x--0---2--4----------0---0--0--0--0--| 
D|--2--x--0------4----------2---2--2--2--2--| 
A|--2--x--2------2--0h2--0--3---3--3--3--3--| 
E|--------3---------------------------------| 

e|--------2---2-----------------------------| 
B|--------0---3-------------0---0--0--0--0--| 
G|--1--x--0---2--4----------0---0--0--0--0--| 
D|--2--x--0------4----------2---2--2--2--2--| 
A|--2--x--2------2--0h2--0--3---3--3--3--3--| 
E|--------3---------------------------------| 

e|--------2---2-----------------------------| 
B|--------0---3-------------0---0--0--0--0--| 
G|--1--x--0---2--4----------0---0--0--0--0--| 
D|--2--x--0------4----------2---2--2--2--2--| 
A|--2--x--2------2--0h2--0--3---3--3--3--3--| 
E|--------3---------------------------------| 

e|--------2---2-----------------------------| 
B|--------0---3-------------0---0--0--0--0--| 
G|--1--x--0---2--4----------0---0--0--0--0--| 
D|--2--x--0------4----------2---2--2--2--2--| 
A|--2--x--2------2--0h2--0--3---3--3--3--3--| 
E|--------3---------------------------------| 


Solo 
e|----------------------------------|----------------------------------| 
B|----------------------------------|----------------------------------| 
G|-7h9-9br--9---7h9-9b--------------|-7h9-9br--9---7h9-9b--------------| 
D|----------------------9/10--9-----|----------------------9/10--9-----| 
A|-------------------------------10-|-------------------------------10-| 
E|----------------------------------|----------------------------------| 


Chorus 
e|--------2---2-----------------------------| 
B|--------0---3-------------0---0--0--0--0--| 
G|--1--x--0---2--4----------0---0--0--0--0--| 
D|--2--x--0------4----------2---2--2--2--2--| 
A|--2--x--2------2--0h2--0--3---3--3--3--3--| 
E|--------3---------------------------------| 

e|--------2---2-----------------------------| 
B|--------0---3-------------0---0--0--0--0--| 
G|--1--x--0---2--4----------0---0--0--0--0--| 
D|--2--x--0------4----------2---2--2--2--2--| 
A|--2--x--2------2--0h2--0--3---3--3--3--3--| 
E|--------3---------------------------------| 

e|--------2---2-----------------------------| 
B|--------0---3-------------0---0--0--0--0--| 
G|--1--x--0---2--4----------0---0--0--0--0--| 
D|--2--x--0------4----------2---2--2--2--2--| 
A|--2--x--2------2--0h2--0--3---3--3--3--3--| 
E|--------3---------------------------------| 

e|--------2---2-----------------------------| 
B|--------0---3-------------0---0--0--0--0--| 
G|--1--x--0---2--4----------0---0--0--0--0--| 
D|--2--x--0------4----------2---2--2--2--2--| 
A|--2--x--2------2--0h2--0--3---3--3--3--3--| 
E|--------3---------------------------------| 


Outro 
e|------------------------------|------------------------------| 
B|-0---0--0--0---0--0--0--0--0--|-0---0--0--0---0--0--0--0--0--| 
G|-0---0--0--0---0--0--0--0--0--|-0---0--0--0---0--0--0--0--0--| 
D|-2---2--2--2---2--2--2--2--2--|-2---2--2--2---2--2--2--2--2--| 
A|-3---3--3--3---3--3--3--3--3--|-3---3--3--3---3--3--3--3--3--| 
E|------------------------------|------------------------------| 

e|------------------------------|------------------------------| 
B|-0---0--0--0---0--0--0--0--0--|-0---0--0--0---0--0--0--0--0--| 
G|-0---0--0--0---0--0--0--0--0--|-0---0--0--0---0--0--0--0--0--| 
D|-4---4--4--4---4--4--4--4--4--|-4---4--4--4---4--4--4--4--4--| 
A|-5---5--5--5---5--5--5--5--5--|-5---5--5--5---5--5--5--5--5--| 
E|------------------------------|------------------------------| 

e|------------------------------|------------------------------| 
B|-0---0--0--0---0--0--0--0--0--|-0---0--0--0---0--0--0--0--0--| 
G|-0---0--0--0---0--0--0--0--0--|-0---0--0--0---0--0--0--0--0--| 
D|-2---2--2--2---2--2--2--2--2--|-2---2--2--2---2--2--2--2--2--| 
A|-3---3--3--3---3--3--3--3--3--|-3---3--3--3---3--3--3--3--3--| 
E|------------------------------|------------------------------| 

e|------------------------------|------------------------------| 
B|-0---0--0--0---0--0--0--0--0--|-0---0--0--0---0--0--0--0--0--| 
G|-0---0--0--0---0--0--0--0--0--|-0---0--0--0---0--0--0--0--0--| 
D|-4---4--4--4---4--4--4--4--4--|-4---4--4--4---4--4--4--4--4--| 
A|-5---5--5--5---5--5--5--5--5--|-5---5--5--5---5--5--5--5--5--| 
E|------------------------------|------------------------------| 


********************* 
| 
| h = Hammer-on 
| x  = Dead note 
| /  = Slide-up 
| br = Bend release 
| b  = Bend 
| 
********************* 
	  

Search Paypal
auto scroll beats size up size down change color hide chords drawings
tab show chords e-chords YouTube Clip e-chords hide all tabs e-chords go to top tab

share with facebook