Motor Ace

Crash

Motor Ace

tabs

save to print version add songbook text version e-mail correct tuner
chordsukulelecavacokeyboardtabbassdrumsharmonicaflute Guitar Pro
close

there isn't a video lesson for this song

chords

Crash

	  		Tabbed By: Damien Hill 
E-mail: [email protected] 
 
Intro/Chorus Lead 
----------------- 
e||---------0-------------0---------| 
B||-----3-----3---3---3-----3---3---| 
G||---2---2-----2---2---2-----2-----| 
D||---------------------------------| 
A||---------------------------------| 
E||---------------------------------| 
 
 
Intro/Verse Rhythm 
------------------ 
        G         C2        Dsus4     C2 
e||-----3-3-3-3---3-3-3-3---3-3-3-3---3-3-3-3---| 
B||-----3-3-3-3---3-3-3-3---3-3-3-3---3-3-3-3---| 
G||-----0-0-0-0---0-0-0-0---2-2-2-2---0-0-0-0---| 
D||-----0-0-0-0---x-x-x-x---0-0-0-0---x-x-x-x---| 
A||-----x-x-x-x---3-3-3-3-------------3-3-3-3---| 
E||-----3-3-3-3---------------------------------| 
 
1. Here you go, way too fast / Don't slow down you're gonna crash 
2. Here you go, way too fast / Don't slow down you're gonna crash 
1. You should watch, watch your step / Don't look out, gonna break your neck 
2. You don't know, what's been going down / You've been running all over town  
1. So shut, shut your mouth / Cause I'm not listening anyhow 
2. So shut, shut your mouth / Cause I'm not listening anyhow  
1. Had enough, enough of you / Enough to last a lifetime through 
2. Had enough, enough of you / Enough to last a lifetime through 
 
 
Pre-Chorus Rhythm 
----------------- 
        Dsus4               G         C2 
e||-----3-3-3-3---3-3-3-3---3-3-3-3---3-3-3-3---| 
B||-----3-3-3-3---3-3-3-3---3-3-3-3---3-3-3-3---| 
G||-----2-2-2-2---2-2-2-2---0-0-0-0---0-0-0-0---| 
D||-----0-0-0-0---0-0-0-0---0-0-0-0---x-x-x-x---| 
A||-------------------------x-x-x-x---3-3-3-3---| 
E||-------------------------3-3-3-3-------------| 
 
1. So what do you want of me / Got no words of sympathy 
2. So what do you want of me / Got no cure for misery 
1. And if I go around with you / You know that I'll get messed up to  
2. And if I go around with you / You know that I'll get messed up to  
 
        Dsus4 
e||-----3-3-3-3---3-3-2-2---3-3-3-3---3-3-3-3---| 
B||-----3-3-3-3---3-3-3-3---3-3-3-3---3-3-3-3---| 
G||-----2-2-2-2---2-2-2-2---2-2-2-2---2-2-2-2---| 
D||-----0-0-0-0---0-0-0-0---0-0-0-0---0-0-0-0---| 
A||---------------------------------------------| 
E||---------------------------------------------|  
	(Play this twice on the 2nd pre-chorus) 
 
1. With you / With you 
2. With you / With you, with you 
 
 
Chorus Rhythm 
------------- 
        G         C2        Dsus4     C2 
e||-----3-3-3-3---3-3-3-3---3-3-3-3---3-3-3-3---| 
B||-----3-3-3-3---3-3-3-3---3-3-3-3---3-3-3-3---| 
G||-----0-0-0-0---0-0-0-0---2-2-2-2---0-0-0-0---| 
D||-----0-0-0-0---x-x-x-x---0-0-0-0---x-x-x-x---| 
A||-----x-x-x-x---3-3-3-3-------------3-3-3-3---| 
E||-----3-3-3-3---------------------------------| 
 
Na na-na nana, na na-na nana naaaa (You're gonna crash) 
 
 
 

		  

Full key step upFull key step up
Half key step upHalf key step up
Half key step downHalf key step down
Full key step downFull key step down
hide glossary

See also:

tabs Lee Kernaghan - Hat Town tabs Grinspoon - Chemical Heart tabs The Vines - Ride (ver. 2) tabs Miscellaneous / Australiana - Advance Australia Fair tabs Ganggajang - Hundreds of Languages tabs Xavier Rudd - Solace
e-chords

Other versions:

tabs Aerosmith - Crash tabs Dave Matthews Band - Crash tabs Motor Ace - Crash tabs Papa Roach - Crash tabs Fit For Rivals - Crash tabs Seether - Crash
auto scroll beats size up size down change color hide chords drawings
tab show chords e-chords YouTube Clip e-chords hide all tabs e-chords go to top tab

share