Motley Crue

Bastard Tab

Motley Crue

Difficulty: ExpertExpert

tuner correct add songbook print version text version save to e-mail
chordsukulelecavacokeyboardtabbassdrumsharmonicsflute Guitar Pro
close

there isn't a video lesson for this song

request
chords

Bastard

Year: 1983 - Album: Shout at the Devil

  		bastard 
motley crue 
 
drop D tuning- DGCFAD 
 
PM- palm mute 
x- palm mute 
h- hammer on 
p- pull off 
/- slide down 
\- slide up 
^- use bar 
\/- dive with bar 
b- bend 
nh- natural harmonic 
 
           nh---------| 
d---------------------5- 
g---------------------5- 
c-------------------5--- 
f-----------5----5------ 
a-------------5--------- 
d--17\------------------ 
 
verse 
d--------------------------------------------------------- 
g--3--6-----5---3-------------3--6-----5---3-------------- 
c--2--5-----4---2-------------2--5-----4---2-------------- 
f--0--3-----2---0-------------0--3-----2---0-------------- 
a-------0-0---0------0-3-2-3-------0-0---0-----0-3-2----0- 
d-----------------------------------------------------3--- 
 
d--------------------------------------------------------------------------- 
g--------------------------------------------------3--6-----5---3----------- 
c--5-----4---2--------------5-----4---2------------2--5-----4---2----------- 
f--5-----4---2--------------5-----4---2------------0--3-----2---0----------- 
a----0-0---0-----0-3-2---0----0-0---0-----0-3-2-3-------0-0---0-----0-3-2-3- 
d----------------------3---------------------------------------------------- 
 
d----------------------------------------------------------------- 
g--3--6-----5---3------------------------------------------------- 
c--2--5-----4---2------------2----4---5-----4---5---4---5---4---2- 
f--0--3-----2---0------------2----4---5-----4---5---4---5---4---2- 
a-------0-0---0-----0-3-2-3--0------0-----0---0---0---0---0---0--- 
d----------------------------------------------------------------- 
 
gtr 2 
d--------------------------------------------------------------------------------- 
g-----------------------------------------------10-10-10-10-13b------------------- 
c-----------------------------------------10-12----------------------------------- 
f----------------------------10-10--10-12------------------------0\/---^--^--^--^- 
a------------8-8-10-10-10/12------------------------------------------------------ 
d--8-8-10-10---------------------------------------------------------------------- 
 
gtr 1 
d----------------------------------------------- 
g----------------------------------------------- 
c-------2-----4---5------4--5---4---5----4----2- 
f-------2-----4---5------4--5---4---5----4----2- 
a--3p0--0-------0------0---0---0--0----0----0--- 
d----------------------------------------------- 
 
gtr 2 
d-------------------------------------------------- 
g--5------7----8------7-----8----7----8----7----5-- 
c--7b-----9b---10b----9b----10b--9b---10b--9b---7b- 
f-------------------------------------------------- 
a-------------------------------------------------- 
d-------------------------------------------------- 
 
verse 
d------------------------------------------------------------------ 
g------------------------------------------------------------------ 
c------------------------------------------------------------------ 
f--7--\----5-6-7--\--3--2--7--\-----5-6-7--\-----2-3-0-2----0------ 
a--7--\----5-6-7--\--3--2--7--\-----5-6-7--\--------------3----2-3- 
d--5--\----3-4-5--\--1--0--5--\-----3-4-5--\--0-------------------- 
 
chorus 
d-------------------------------------------- 
g-------------------------------------------- 
c--2----4---5-----4---5---4---5---4---2------ 
f--2----4---5-----4---5---4---5---4---2--0-2- 
a--0------0-----0---0---0---0---0---0-------- 
d-------------------------------------------- 
 
d---------------------------------------------- 
g---------------------------------------------- 
c--2----4---5-----4---5---4---5---4---2-------- 
f--2----4---5-----4---5---4---5---4---2-------- 
a--0------0-----0---0---0---0---0---0----3-2-3- 
d---------------------------------------------- 
 
d----------------------------------------------------- 
g--3--6-----5---3-----------3--6------5---3----------- 
c--2--5-----4---2-----------2--5------4---2----------- 
f--0--3-----2---0-----------0--3------2---0----------- 
a-------0-0---0-----0-3-2-3-------0-0---0-----0-3-2--- 
d---------------------------------------------------3- 
 
                                                       last time only  
d-----------------------------------------------------|--------- 
g-----------------------------------------------------|--------- 
c--2-----4---5------4---5---4---5---4----2------------|-2------- 
f--2-----4---5------4---5---4---5---4----2-------0--0-|-2-----0- 
a--0-------0------0---0---0---0---0----0--------------|--------- 
d-----------------------------------------------------|--------- 
 
interlude 
d-----------------------------------------------5----5-7-8-7---7-8-10----8-/- 
g-----------------------------------------------5----5-7-8-7---7-8-10----8-/- 
c--2-------4--------5-------------------------------------------------------- 
f--2-------4--------5--------2-3-0-2----0------------------------------------ 
a--0-------2--------3-----------------3----2-3------------------------------- 
d---------------------------------------------------------------------------- 
 
d--12-13-10-12-8-10-7-8- 
g--12-13-10-12-8-10-7-8- 
c----------------------- 
f----------------------- 
a----------------------- 
d----------------------- 
 
solo 
d--------------------------------------------------------------- 
g--3--6-----5---3-----------------3--6-----5----3--8b-p6-------- 
c--2--5-----4---2-----------------2--5-----4----2--------7~~--7- 
f--0--3-----2---0-----------------0--3-----2----0--------------- 
a-------0-0---0---------0-3-2-3--------0-0----0----------------- 
d--------------------------------------------------------------- 
 
d----------------------------------------------------------- 
g--5-6-8-8-5-6-8-8-5-6-8-8-5-5-6-6--6-5--------------------- 
c---------------------------------------7--5-5-5------------ 
f----------------------------------------------------------- 
a---------------------------------------------------0-3-2-3- 
d----------------------------------------------------------- 
 
                                             PM--------------------------------| 
d-------------------------------------------------------------------------------- 
g--3--6-----5---3---------------------------------------------------------------- 
c--2--5-----4---2--------------5-7-7b--5-7--------------------------------------- 
f--0--3-----2---0-------------------------------------------------------10-10-12- 
a-------0-0---0-------0-3-2-3---------------------------8-8-10-10/12-12---------- 
d-------------------------------------------8-8--8-8-10-------------------------- 
 
   PM----| 
d----------------------------------------------- 
g-----------10-13p10-13/15-15h17p15-13h15-12h13- 
c--10-10-10------------------------------------- 
f----------------------------------------------- 
a----------------------------------------------- 
d----------------------------------------------- 
 
d---------------------------------------12-12-13-15--13-13-15-12-13-15-12-12------- 
g----------------------------------------------------------------------------15-12- 
c--7-7-7-7-7-7-7-7--7-7--7--7-7-7-7--7--------------------------------------------- 
f--7-7-7-7-7-7-7-7--7-7--7--7-7-7-7--7--------------------------------------------- 
a--5-5-5-5-5-5-5-5--5-5--5--5-5-5-5--5--------------------------------------------- 
d---------------------------------------------------------------------------------- 
 
d--15b-15b-15b-15b--\- 
g--------------------- 
c--------------------- 
f--------------------- 
a--------------------- 
d--------------------- 
 
chorus 
d-------------------------------------------------------- 
g-------------------------------------------------------- 
c--2-----4---5--------4---5----4----5----4----2---------- 
f--2-----4---5--------4---5----4----5----4----2------0-2- 
a--0-------0--------0---0----0----0----0----0------------ 
d-------------------------------------------------------- 
 
d--------------------------------------------------------------------- 
g-------------3--6-----5----3--------------3--6-----5----3------------ 
c--2----------2--5-----4----2--------------2--5-----4----2------------ 
f--2----------0--3-----2----0--------------0--3-----2----0------------ 
a------3-2-3-------0-0----0-------0-3-2-3-------0-0----0-----0-3-2---- 
d-------------------------------------------------------------------3- 
 
d------------------------------------------------------------ 
g------------------------------------------------------------ 
c--2-----4---5--------4---5----4----5----4----2-------------- 
f--2-----4---5--------4---5----4----5----4----2------0------- 
a--0-------0--------0---0----0----0----0----0----------3-2-3- 
d------------------------------------------------------------ 
 
d------------------------------------------------------------------- 
g-----------3--6-----5----3--------------3--6-----5----3------------ 
c-----------2--5-----4----2--------------2--5-----4----2------------ 
f-----------0--3-----2----0--------------0--3-----2----0------------ 
a--0-3-2-3-------0-0----0-------0-3-2-3-------0-0----0-----0-3-2---- 
d-----------------------------------------------------------------3- 
 
                                                     PM------------| 
d------------------------------------------------------------------- 
g------------------------------------------------------------------- 
c--2-----4---5--------4---5----4----5----4----2--2---7--7-7-7-7-7-7- 
f--2-----4---5--------4---5----4----5----4----2--2---7--7-7-7-7-7-7- 
a--0-------0--------0---0----0----0----0----0--------5--5-5-5-5-5-5- 
d------------------------------------------------------------------- 
 
   PM-------------| 
d----------------------------------------------------- 
g----------------------------------------------------- 
c--7-7-7-7-7-7-7-7---5-5-5-5-5-5-5-5--5-5-5-5-5-5-5-5- 
f--7-7-7-7-7-7-7-7---5-5-5-5-5-5-5-5--5-5-5-5-5-5-5-5- 
a--5-5-5-5-5-5-5-5---3-3-3-3-3-3-3-3--3-3-3-3-3-3-3-3- 
d----------------------------------------------------- 
 
gtr 2 
d--------------------------------- 
g--------------------------------- 
c--5---5/7-----7------9\7--7\5--5- 
f--------------------------------- 
a--3---3/5-----5------7\5--5\3--3- 
d--------------------------------- 
 
repeat to fade 
d------------------------------------- 
g------------------------------------- 
c--2-2---x--2-2---x--2-2---x--2-2---x- 
f--2-2---x--2-2---x--2-2---x--2-2---x- 
a--0-0---x--0-0---x--0-0---x--0-0---x- 
d------------------------------------- 
 
        __ 
      =/ / 
     =/ / 
    =/_/             
     |_\            
     |_|           
     |_|  any questions or correction   
     |_|   email me, [email protected] -Crue 
     |_| 
     |_| 
     |_|       
  /\ |_| 
 / | |_|  _ 
 \  \|_| ( \  
  |     \/ / 
  | {===} |  
 /  {===}/|    
 |   ___/oo\   
 \  |---| o )   
  \________/ 
 
 

	  

Search Paypal
auto scroll beats size up size down change color hide chords drawings
tab show chords e-chords YouTube Clip e-chords hide all tabs e-chords go to top tab

share with facebook