Mother Mother

Bit By Bit

Mother Mother

tabs Easy easy

by  ALYSLIMA

save to print version add songbook text version e-mail correct tuner
chordsukulelecavacokeyboardtabbassdrumsharmonicaflute Guitar Pro
close

there isn't a video lesson for this song

chords

Bit By Bit

	  		

Verse 
e|-----------------x15----------------------------------------------------------| 
B|-------3--------3----------------------------x6-------------------------------| 
G|-------3--------3------------2-----2--------7--------5----5-------------------| 
D|-------0--------0------------0-----0--------0--------0----0-------------------| 
A|------------------------------------------------------------------------------| 
E|---3--------3------------1-------1-------6-------3/5----5---------------------| 


e|-----------------x3------------------------------------------------------------| 
B|-------3--------3----------------------------x6------------------------x4------| 
G|-------3--------3------------2-----2--------7--------5----5------0---0---------| 
D|-------0--------0------------0-----0--------0--------0----0------6---6---------| 
A|-------------------------------------------------------------------------------| 
E|---3--------3------------1-------1-------6---------5----5------4---4-----------| 


Chorus 

Gm     Am    Gm/A#     G5    Gm/A#      Am      Gm 

Verse 2 
e|-----------------x3-----------------------------------------------------------| 
B|-------3--------3----------------------------x6-------------------------------| 
G|-------3--------3------------2-----2--------7--------5----5-------------------| 
D|-------0--------0------------0-----0--------0--------0----0-------------------| 
A|------------------------------------------------------------------------------| 
E|---3--------3------------1-------1-------6-------3/5----5---------------------| 


e|-----------------x3------------------------------------------------------------| 
B|-------3--------3----------------------------x6------------------------x4------| 
G|-------3--------3------------2-----2--------7--------5----5------0---0---------| 
D|-------0--------0------------0-----0--------0--------0----0------6---6---------| 
A|-------------------------------------------------------------------------------| 
E|---3--------3------------1-------1-------6---------5----5------4---4-----------| 


Chorus 
                                                                   x2 
Gm     Am    Gm/A#     G5    Gm/A#      Am      Gm 



Bridge Riff (Between Bridges) 
e|-----------------------------------------------------------------| 
B|-----------------------------------------------------------------| 
G|-----------------------------------------------------------------| 
D|-----------------------------------------------------------------| 
A|-----------------------4-----------------------------------------| 
E|-----3-----5-----6-----------------------------------------------|  
		  

Full key step upFull key step up
Half key step upHalf key step up
Half key step downHalf key step down
Full key step downFull key step down
hide glossary

See also:

tabs Alexisonfire - Born And Raised tabs Mother Mother - Get Out The Way tabs 3 Inches Of Blood - Dark Messenger tabs Mother Mother - Business Man tabs 3 Inches Of Blood - Lord Of The Storm Upon The Boiling Sea 2 tabs Mother Mother - Bit By Bit
e-chords

Other versions:

tabs Mother Mother - Bit By Bit
auto scroll beats size up size down change color hide chords drawings
tab show chords e-chords YouTube Clip e-chords hide all tabs e-chords go to top tab

share with facebook