Moses Sumney

Dont Bother Calling

Moses Sumney

tabs

by  TERCMORAES

save to print version add songbook text version e-mail correct tuner
chordsukulelecavacokeyboardtabbassdrumsharmonicaflute Guitar Pro
close

there isn't a video lesson for this song

chords

Dont Bother Calling

	  		
Intro 
e|---------------------------------| 
B|---------------------------------| 
G|---------------------------------| 
D|--10-----10--9-----10-----10--9--| 
A|--8------8---10----8------8---10-| 
E|--10-----10--8-----10-----10--8--| 

e|------------------------------------------------------------------------------------------| 
B|------------------------------------------------------------------------------------------| 
G|------------------------------------------------------------------------------------------| 
D|-----9h10p9-----9h10p9-----9----6h7p6---6h7p6---6-----9h10p9-----9h10p9-----9----6h7p6---6| 
A|---10------10-10------10-10----7-----7-7-----7-7----10------10-10------10-10----7-----7-7-| 
E|--8----------8----------8-----5-------5-------5----8----------8----------8-----5-------5--| 

Verse 
e|--------------------------------------------------------------------------------------------------| 
B|--------------------------------------------------------------------------------------------------| 
G|--------------------------------------------------------------------------------------------------| 
D|-----9h10p9-----9h10p9-----9----6h7p6---6h7p6---6-----9h10p9-----9h10p9-----9----6h7p6---6h7p6---6| 
A|---10------10-10------10-10----7-----7-7-----7-7----10------10-10------10-10----7-----7-7-----7-7-| 
E|--8----------8----------8-----5-------5-------5----8----------8----------8-----5-------5-------5--| 

e|------------------------------------------------------------------------------------| 
B|------------------------------------------------------------------------------------| 
G|------------------------------------------------------------------------------------| 
D|----2h3p2---2h3p2---2----0h2p0---0h2p0---0----2h3p2---2h3p2---2----0h2p0---0h2p0---0| 
A|---3-----3-3-----3-3----3-----3-3-----3-3----3-----3-3-----3-3----3-----3-3-----3-3-| 
E|--1-------1-------1----2-------2-------2----1-------1-------1----2-------2-------2--| 

e|--------------------------------------------------------------------------------------------------| 
B|--------------------------------------------------------------------------------------------------| 
G|--------------------------------------------------------------------------------------------------| 
D|-----9h10p9-----9h10p9-----9----6h7p6---6h7p6---6-----9h10p9-----9h10p9-----9----6h7p6---6h7p6---6| 
A|---10------10-10------10-10----7-----7-7-----7-7----10------10-10------10-10----7-----7-7-----7-7-| 
E|--8----------8----------8-----5-------5-------5----8----------8----------8-----5-------5-------5--| 

e|-----------------------------------------------------------------------------------| 
B|-----------------------------------------------------------------------------------| 
G|-----------------------------------------------------------------------------------| 
D|----2h3p2---2h3p2---2----0h2p0---0h2p0---0----2h3p2---2h3p2---2----0h2p0---0h2p0---| 
A|---3-----3-3-----3-3----3-----3-3-----3-3----3-----3-3-----3-3----3-----3-3-----3-3| 
E|--1-------1-------1----2-------2-------2----1-------1-------1----2-------2-------2-| 

Pre-Chorus 
e|----------------------------------------------------------------------------------------------------------| 
B|----------------------------------------------------------------------------------------------------------| 
G|----------------------------------------------------------------------------------------------------------| 
D|-----10-10----10-10----10-----9h10p9---- 9h10p9-----9-----10-10----10-10----10-----9h10p9-----9h10p9-----9| 
A|----8--8--8--8--8--8--8-----10------10-10------10-10-----8--8--8--8--8--8--8-----10------10-10------10-10-| 
E|--10-------10-------10-----8----------8----------8-----10-------10-------10-----8----------8----------8---| 

Chorus 
e|--------------------------------------------------------------------------------------------------| 
B|--------------------------------------------------------------------------------------------------| 
G|--------------------------------------------------------------------------------------------------| 
D|-----10-10----10-10----10-----9h10p9---- 9h10p9-----9-----10-10----10-10----10-----9h10p9-----9h10| 
A|----8--8--8--8--8--8--8-----10------10-10------10-10-----8--8--8--8--8--8--8-----10------10-10----| 
E|--10-------10-------10-----8----------8----------8-----10-------10-------10-----8----------8------| 

Verse 
e|--------------------------------------------------------------------------------------------------| 
B|--------------------------------------------------------------------------------------------------| 
G|--------------------------------------------------------------------------------------------------| 
D|-----9h10p9-----9h10p9-----9----6h7p6---6h7p6---6-----9h10p9-----9h10p9-----9----6h7p6---6h7p6---6| 
A|---10------10-10------10-10----7-----7-7-----7-7----10------10-10------10-10----7-----7-7-----7-7-| 
E|--8----------8----------8-----5-------5-------5----8----------8----------8-----5-------5-------5--| 

e|------------------------------------------------------------------------------------| 
B|------------------------------------------------------------------------------------| 
G|------------------------------------------------------------------------------------| 
D|----2h3p2---2h3p2---2----0h2p0---0h2p0---0----2h3p2---2h3p2---2----6h7p6---6h7p6---6| 
A|---3-----3-3-----3-3----3-----3-3-----3-3----3-----3-3-----3-3----7-----7-7-----7-7-| 
E|--1-------1-------1----2-------2-------2----1-------1-------1----5-------5-------5--| 

e|----------------------------| 
B|----------------------------| 
G|----------------------------| 
D|-----9h10p9-----9h10p9-----9| 
A|---10------10-10------10-10-| 
E|--8----------8----------8---| 


Bridge 
e|---------------------------------------------| 
B|---------------------------------------------| 
G|---------------------------------------------| 
D|----5-5---5-5---5----3-3----3-3----2-2----0h2| 
A|---7-7-7-7-7-7-7----5------5------3------0---| 
E|--6-----6-----6----5------4------3------2----| 

Pre-Chorus 
e|--------------------------------------------------| 
B|--------------------------------------------------| 
G|--------------------------------------------------| 
D|--10-----10--9-----10---10-----9--9-----9--9-----9| 
A|--8------8---10----8----8----10-10-10-10-10-10-10-| 
E|--10-----10--8-----10---10--8--------8--------8---| 

Chorus 
e|-------------------------------------------------------------------------------------------------------| 
B|-------------------------------------------------------------------------------------------------------| 
G|-------------------------------------------------------------------------------------------------------| 
D|-----10-10----10-10----10-----9--9-----9p10-----9-------10-10----10-10----10-----9--9-----10--10-----10| 
A|----8--8--8--8--8--8--8-----10-10-10-10----10-10-10----8--8--8--8--8--8--8-----10-10-10-10--10--10-10--| 
E|--10-------10-------10-----8--------8--------8-------10-------10-------10-----8--------8----------8----| 

e|-----------------------------------------------------------------------------------------------| 
B|-----------------------------------------------------------------------------------------------| 
G|-----------------------------------------------------------------------------------------------| 
D|-----10-10----10-10----10-----9--9-----9--9-----9-----10h12p10----10h12p10----10-----9--9--9/10| 
A|----8--8--8--8--8--8--8-----10-10-10-10-10-10-10-----8--------8--8--------8--8-----10-10-10----| 
E|--10-------10-------10-----8--------8--------8-----10----------10----------10-----8------------| 

************************************ 

| h   Hammer-on 
| p   Pull-off 
| /   Slide up 

************************************ 
		  

See also:

tabs Ira! - Poço de Sensibilidade (Solo - Acustico Mtv) tabs Deep Purple - Smoke On The Water tabs Deep Purple - Smoke on the water (intro) tabs Ira! - Eu Quero Sempre Mais (Com Pitty, intro) tabs Deep Purple - Smoke on the Water (ver. 2) tabs Deep Purple - Knocking At Your Back Door
e-chords

Other versions:

tabs Moses Sumney - Dont Bother Calling
auto scroll beats size up size down change color hide chords drawings
tab show chords e-chords YouTube Clip e-chords hide all tabs e-chords go to top tab

share