Montgomery Gentry

home > Montgomery Gentry

Gone Tab

Montgomery Gentry

Difficulty: nolevelnolevel

tuner correct add songbook print version text version save to e-mail
chordsukulelecavacokeyboardtabbassdrumsharmonicsflute Guitar Pro
chords

Gone

  		 
------------------------------------------- 
-------1---------1-1----------------------- 
-----2---------2--------------------------- 
--0---------0------------------------------ 
------------------------------------------- 
------------------------------------------- 
 
------------------------------------------- 
-------0---------0-0----------------------- 
-----2---------2--------------------------- 
--0---------0------------------------------ 
------------------------------------------- 
------------------------------------------- 
 
I wish i could help with the strumming but i cant seem to find the right cords so im  open for ideas. 
	  

Search Paypal
auto scroll beats size up size down change color hide chords drawings
tab show chords e-chords YouTube Clip e-chords hide all tabs e-chords go to top tab