Monster Magnet

Bummer

Monster Magnet

tabs

by  NHRA

save to print version add songbook text version e-mail correct tuner
chordsukulelecavacokeyboardtabbassdrumsharmonicaflute Guitar Pro
close

there isn't a video lesson for this song

chords

Bummer

	  		Intro & Verse 
E|----------------| 
B|----------------| 
G|----------------| 
D|----------------| As many times needed 
A|-5/9-x-x-12-x-5-| 
E|-3/7-x-x-10-x-3-| 
 
Outro 
E|-----------------------| 
B|-----------------------| 
G|----------10--9--7-7/9-| 
D|-9-9-9-9--10--9--7-7/9-| 
A|-9-9-9-9---8--7--5-5/5-| 
E|-7-7-7-7---------------| 
 
Thats bascily it! 

		  

auto scroll beats size up size down change color hide chords drawings
tab show chords e-chords YouTube Clip e-chords hide all tabs e-chords go to top tab

share