Monkeysoop

Cheesy 80s Rock Anthem

Monkeysoop

tabs

by  VSWORLD

save to print version add songbook text version e-mail correct tuner
chordsukulelecavacokeyboardtabbassdrumsharmonicaflute Guitar Pro
close

there isn't a video lesson for this song

chords

Cheesy 80s Rock Anthem

	  		e|----------------------------------| 
B|----------------------------------| 
G|----------------------------------|   Riff 1 
D|--2----7--9-----------------------| 
A|--0----5--7--0-3-0-3-2-0----------| 
E|----------------------------------| 

e|-----------------------------------------------| 
B|-----------------------------------------------| 
G|-----------------------------------------------|   Riff 2 
D|--2----------------2----7--9-------------------| 
A|--0----------------2----5--7--0-3-0-3-2-0------| 
E|-----------------------------------------------| 

e|-----------------------| 
B|-----------------------| 
G|-----------------------|  Riff 3 
D|-----------------------| 
A|--3----2----3-----5----| 
E|--1----0----1-----3----| 


Riff 1 - x8 (Intro) 
Riff 2 - x4 (Verse) 
Riff 3 - x1 (Pre-Chorus) 
Riff 1 - x4 (Chorus) 
Riff 2 - x5 (Verse) 
Riff 3 - x1 (Pre-Chorus) 
Riff 1 - x4 (Chorus) 
Riff 2 - x4 (solo) 
Riff 3 - x1 (Pre-Chorus) 
Riff 1 - x14 (Chorus) 
		  

See also:

tabs Deep Purple - Black Night tabs Deep Purple - Soldier Of Fortune tabs Deep Purple - Demon's Eye tabs Ira! - Envelheço na Cidade tabs Deep Purple - Smoke on the Water (correct) tabs Ira! - Tarde Vazia (Acústico)
e-chords

Other versions:

tabs Monkeysoop - Cheesy 80s Rock Anthem
auto scroll beats size up size down change color hide chords drawings
tab show chords e-chords YouTube Clip e-chords hide all tabs e-chords go to top tab

share