Molotov

Perro Negro Granjero

Molotov

tabs

by  ALESBARRAS

save to print version add songbook text version e-mail correct tuner
chordsukulelecavacokeyboardtabbassdrumsharmonicaflute Guitar Pro
close

there isn't a video lesson for this song

chords

Perro Negro Granjero

	  		Intro 

e|-------------------------- 
B|-------------------------- 
G|-------------------------- x4 
D|--2-2--x-x-x-x--2-5--7---- 
A|--0-0--x-x-x-x--0-3--5---- 
E|-------------------------- 


Verso 
  |_____PM______| 
e|-------------------------- 
B|-------------------------- 
G|-------------------------- 
D|--2-2--2-2-2-2--2-5--7---- Se repite varias veces 
A|--0-0--0-0-0-0--0-3--5---- 
E|-------------------------- 

Coro (Soy un perro negro callejero...) 
                |_____PM_____| 
e|-------------|------------------------ 
B|-------------|------------------------ 
G|-------------|------------------------ 
D|--5-----7----|--2-2--2-2-2-2--2-5-7--- x2 
A|--3-----5----|--0-0--0-0-0-0--0-3-5--- 
E|-------------|------------------------ 

Solo 

e|--------------------------------------- 
B|---/17-17-17-17-17-17-17-17...-------- 
G|---/16-16-16-16-16-16-16-16...-------- Varias veces 
D|--------------------------------------- 
A|--------------------------------------- 
E|--------------------------------------- 

e|----------------------------------------- 
B|--12------------------------------------- 
G|-----14-12-----------------12------------ 
D|-----------14-12-14--12-14----14-12-14--- 
A|----------------------------------------- 
E|----------------------------------------- 

e|----------------------------------------- 
B|----------------------------------------- 
G|--------------12----------------12b~~---- 
D|--14-14-14-14----14-12-14-12-14---------- 
A|----------------------------------------- 
E|----------------------------------------- 

e|----------------------------------------- 
B|--12------------------------------------- 
G|-----14-12-----------------12------------ 
D|-----------14-12-14--12-14----14-12-14--- 
A|----------------------------------------- 
E|----------------------------------------- 

e|----------------------------------------------- 
B|----------------------------------------------- 
G|--------------12----12-14-12-14-14b~~--14r----- 
D|--14-14-14-14----14---------------------------- 
A|----------------------------------------------- 
E|----------------------------------------------- 

Después se repite la Intro, luego varias veces el Verso y el Coro 

Final (tengo que vagar tengo que vagar tengo que vagar y rolar...) 

e|----------------------------------------------- 
B|----------------------------------------------- 
G|----------------------------------------------- 
D|--2-2-2-2-5---2-2-2-2-5---2-2-2-2-5------------ x4 
A|--0-0-0-0-3---0-0-0-0-3---0-0-0-0-3---*2-2-5---- 
E|---------------------------------------0-0-3---- 

*Termina con 

e|----------- 
B|----------- 
G|------7---- 
D|------5---- 
A|-2-2------- 
E|-0-0------- 

no se olbiden de comentar xf 
		  

auto scroll beats size up size down change color hide chords drawings
tab show chords e-chords YouTube Clip e-chords hide all tabs e-chords go to top tab

share