Molotov

home > Molotov

Amateur Tab

Molotov

Difficulty: nolevelnolevel

by antoniades

tuner correct add songbook print version text version save to e-mail
chordsukulelecavacokeyboardtabbassdrumsharmonicsflute Guitar Pro
chords

Amateur

  		Bueno aqui esta la nueva rola de molotov ta bien chida..... 
chekenla........... 
 
Intro: 
--------------------------------------------  x4 
-------------------------------------------- 
-------------------------------------------- 
-------------------------------------------- 
-----2--5-5---8---7/3------7--------5-7----- 
---4---------------------------------------- 
 
-------------------------------------------- 
-------------------------------------------- 
-------------------------------------------- 
-------------------------------------------- 
-----2--5-5---8----------------------------- 
---4---------------------------------------- 
 
Oh! Oh ! Oh! Oh! Oh! Oh! Oh! 
-------------------------------------------- 
-------------------------------------------- 
-------5----2----4-------------------------- 
--2----5----2----4----2--------------------- 
--2----3----0----2----2--------------------- 
--0-------------------0--------------------- 
 
El verso va con bajo........ 
 
pero cuando empiezan a cantar esto: Mas de diez toquines...ahi entra la guitarra... 
 
-------------------------------------------- 
-------------------------------------------- 
-------------------------------------------- 
-------------------------------------------- 
-----2--5-5---8---7/3------7--------5-7----- 
---4---------------------------------------- 
 
Coro: Amteur! Amateur! 
-------------------------------------------- 
-------------------------------------------- 
-------5----2----4-------------------------- 
--2----5----2----4----2--------------------- 
--2----3----0----2----2--------------------- 
--0-------------------0--------------------- 
 
por ahi se escucha un solo mas o menos va asi...... 
-------------------------------------------- 
-------------------------------------------- 
------4--2--0------------------------------- 
---2-----------4--2-2----------------------- 
-------------------------------------------- 
--------------------------------------------   tokenlo hasta que dejen de oirlo....... 
 

	  

Search Paypal
auto scroll beats size up size down change color hide chords drawings
tab show chords e-chords YouTube Clip e-chords hide all tabs e-chords go to top tab