Moistboyz

The Spike

Moistboyz

tabs

by  LINEKERS

save to print version add songbook text version e-mail correct tuner
chordsukulelecavacokeyboardtabbassdrumsharmonicaflute Guitar Pro
close

there isn't a video lesson for this song

chords

The Spike

	  		 

intro (no distortion with phaser) 
e|----------------------------------| 
b|-------0-3-0---0-----0-----0---0--| 
G|-----0-------0-----0---0-3---3----| 
D|---2------------------------------| 
A|----------------------------------| 
E|-0--------------------------------|  

riff 2(distortion) 
e|---------------------------------------------| 
b|---------------------------------------------| 
G|----------------------------------------12-~-| 
D|-------------------------------------11-~-~--| 
A|(pm)7-7-7-7--8/9-8/9-(pm)7-7-7-7--10-~-~-~-~-| 
E|(pm)0-0-0-0--6/7-6/7-(pm)0-0-0-0-------------| 3x 

and then 
e|---------------------------------| 
b|---------------------------------| 
G|----------------------9-9-9-9-9--| 
D|----------------------9-9-9-9-9--| 
A|(pm)7-7-7-7--8/9-8/9--7-7-7-7-7--| 
E|(pm)0-0-0-0--6/7-6/7-------------|1x 

riff 3 
e|------------------| 
b|------------------| 
G|-9-9-9-9-9--7-7---| 
D|-9-9-9-9-9--7-7---| 
A|-7-7-7-7-7--5-5---| 
E|------------------| 7x 

e|------------| 
b|------------| 
G|-9-9-9-9-9--| 
D|-9-9-9-9-9--| 1x 
A|-7-7-7-7-7--| 
E|------------| 

riff 4 
e|--------------------------------------| 
b|-11-11---11-11---11-11---11-11--------| 
G|--x--x----x--x----x--x----x--x--------| 
D|--8--8----8--8----8--8----8--8--------| 
A|-10-10---10-10---10-10---10-10--------| 
E|--------------------------------0-0-0-| 4x 

 
		  

See also:

tabs Ira! - Envelheço na Cidade tabs Deep Purple - Smoke On Water tabs Ira! - Inundação de Amor tabs Deep Purple - Stormbringer tabs Deep Purple - Money Talks tabs Ira! - A vida por um fio
e-chords

Other versions:

tabs Moistboyz - The Spike
auto scroll beats size up size down change color hide chords drawings
tab show chords e-chords YouTube Clip e-chords hide all tabs e-chords go to top tab

share