Moistboyz

Hangin By A Thread

Moistboyz

tabs

by  TERCMORAES

save to print version add songbook text version e-mail correct tuner
chordsukulelecavacokeyboardtabbassdrumsharmonicaflute Guitar Pro
close

there isn't a video lesson for this song

chords

Hangin By A Thread

	  		

Riff 
*guitar 2 plays this at a lower octave 
e|----------------------------------| 
B|-----------7-5--------------------| 
G|------4--6-----6~--(4)-----4-5-6--| 
D|--6-6------------------6-6--------| 
A|----------------------------------| 
E|----------------------------------| 

Verse 

Guitar 1                             Guitar 2 

    C#7      F#7                        C#7             F#7 
e|--7-7-7-7--6-6-6-6--|             e|----------------------0~--------|     
B|-----------7-7-7-7--|             b|------0~------------------2-----|     
G|--6-6-6-6--6-6-6-6--|             G|----------1---------3--------3--|  
D|--------------------|             D|----3-------3~----4-------------| 
A|--------------------|             A|--4-----------------------------|     
E|--------------------|             E|--------------------------------| 

Chorus 
*guitar 2 plays lower octave 

e|-9-9-7~-------------------------| 
B|--------9~~------9--9--8~-------| 
G|--------9~~--------9--9--9~-----| 
D|---------------------------11~--| 
A|--------------------------------| 
E|--------------------------------| 

Solo 
guitar 1 
e|--------------------------------------------------------| 
B|-11b(12)br-11b-(12)br-11~~----12b(14)br-12b(14)br-12~~--| 
G|--------------------------------------------------------| 
D|--------------------------------------------------------| 
A|--------------------------------------------------------| 
E|--------------------------------------------------------| 2x 

guitar 2 
e|--------------------------------------------------------| 
B|--------------------------------------------------------| 
G|-11b(12)br-11b-(12)br-11~~------------------------------| 
D|------------------------------14b-(16)br-11~~-----------| 
A|--------------------------------------------------------| 
E|--------------------------------------------------------| 2x 

guitar 1 plays rhythm 

guitar 2 
e|---------------------------------------------------------------------------------------------------| 
B|----------------------------11h12p11---------------------------17-19-------------------------------| 
G|-------------------------------------12-13/16b(18)brb(18)---18-------16-18-18p16-18b(21)-(21)br-18-| 
D|--11b(13)br-b(13)-11~----11------------------------------------------------------------------------| 
A|---------------------------------------------------------------------------------------------------| 
E|---------------------------------------------------------------------------------------------------| 

e|---------------------------| 
B|-----------17-18-19~b(21)--| 
G|--18-16-18-----------------| 
D|---------------------------| 
A|---------------------------| 
E|---------------------------| 

lyrics 

There Comes a Time When You Gotta Walk the Line 
And Then Another When You Leave It All Behind 
Then the Gravy Train Gets Rusted to the Rails 
You Sold Em All Your Sins and Now They're Taking You to Jail 

You Always Said I Was a Good as Dead 
I've Come to Decide That Maybe You Were Right 
Depending On the Weather, I'm the Dawn or the Dead 
Got My Thing Together but I'm Hangin By a Thread 

And Even Though I'm Down to Skin and Bones 
I Gotta Make It Living in the Aerodrome *?* 
And So It Seems I Can't Think Without Confusion 
Try to Keep It Real By Selling My Illusion 

This Is the Scene. I Feel Like Mr. Clean 
I Know the Blood That Flows In My Machine 
My Tongue's a Knife For All the Things Up In My Head 
Got My Thing Together but I'm Hangin By a Thread 

Got Six of One and a Dozen of the Other 
It Makes it Hard to Reach My Hand Out to My Brother 
I Ride the Waves Through the Trials and Tribulation 
Beats Drowning in Chronic Masturbation 

You Always Said I Was a Good as Dead 
I've Come to Decide That Maybe You Were Right 
Depending On the Weather, I'm the Dawn or the Dead 
Got My Thing Together but I'm Hangin By a Thread 

Got My Thing Together but I'm Hangin By a Thread (4x) 

END 
************************************ 

| /   slide up 
| \   slide down 
| h   hammer-on 
| p   pull-off 
| ~   vibrato 
| +   harmonic 
| x   Mute note 
| b   Bend 
| pb  Pre-bend 
| br  Bend release 
| pbr Pre-bend release 
| brb Bend release bend 

************************************ 
		  

Full key step upFull key step up
Half key step upHalf key step up
Half key step downHalf key step down
Full key step downFull key step down
hide glossary

See also:

tabs Ira! - Envelheço na Cidade tabs Deep Purple - Smoke On Water tabs Ira! - Inundação de Amor tabs Deep Purple - Stormbringer tabs Deep Purple - Money Talks tabs Ira! - A vida por um fio
e-chords

Other versions:

tabs Moistboyz - Hangin By A Thread
auto scroll beats size up size down change color hide chords drawings
tab show chords e-chords YouTube Clip e-chords hide all tabs e-chords go to top tab

share