Modest Mouse

Float On

Modest Mouse

tabs Beginner beginner

by  SPYNOSAURUS

save to print version add songbook text version e-mail correct tuner
chordsukulelecavacokeyboardtabbassdrumsharmonicaflute Guitar Pro
close

there isn't a video lesson for this song

chords

Float On

	  		D-DOWNSTROKE 
U=UPSTROKE 
Intro-Guitar 1 
   D  D   U UD D DUD   D  U UD D DUD  D   U UD D DUD D D DU UD D DU 
-|-0--0---0-00-0-000---0--0-00-0-000--0---0-00-0-000-0-0-00-00-0-00 
-|-0--1---1-11-1-000---0--0-00-0-000--1---1-11-1-000-0-0-00-00-0-00 
-|-0--0---0-00-0-000---0--0-00-0-000--2---2-22-2-000-0-0-00-00-0-00 
-|-------------------------------------------------2-2-2-22-22-2-22 
-|----------------------------------------------------------------- 
-|----------------------------------------------------------------- 
   1 + 2 + 3 + 4 + 1 + 2 + 3 + 4 + 1 + 2 + 3 + 4 + 1 + 2 + 3 + 4 + 
 
Guitar 1(Intro) 
Guitar 2 (elec. w/light dist. and wah, no capo) 
-|---------9-------------------------       -|----------------------- 
-|-----11-----11--9---11-11-11-11-11-       -|-11-11-11-11-11-11-9-7- 
-|-10-------------------------------- X 3   -|----------------------- 
-|----------------------------------- Then  -|----------------------- 
-|-----------------------------------       -|----------------------- 
-|-----------------------------------       -|----------------------- 
 
Guitar 1  
Intro X 3 
 
Chorus 
Guitar 1 
-|-----0-------0-------0-------0-------0-------0------------------- 
-|---1---1---1---1---0---0---0---0---1---1---1---1-----0-------0--- 
-|-0-------0-------0-------0-------2-------2---------0---0---0---0- 
-|-------------------------------------------------2-------2------- 
-|----------------------------------------------------------------- 
-|----------------------------------------------------------------- 
   1 + 2 + 3 + 4 + 1 + 2 + 3 + 4 + 1 + 2 + 3 + 4 + 1 + 2 + 3 + 4 + 
 
Verse 
 
Chorus 
 
Slow part 
-|-0-------------------------------------------------------3------- 
-|-1-----------------------------------------------1---0---0---0--- 
-|-0-----------------------------------------------0---0---0---0--- 
-|-2--------------------------------------------------------------- 
-|----------------------------------------------------------------- 
-|----------------------------------------------------------------- 
   1 + 2 + 3 + 4 + 1 + 2 + 3 + 4 + 1 + 2 + 3 + 4 + 1 + 2 + 3 + 4 + 
 
Outro 
Bass plays the first 4 mesures then 
Guitar 1 with intro 
Guitar 2 (light PM) 
-|----------------------------------------------------------------- 
-|----------------------------------------------------------------- 
-|---1-3-1---1-3-1---1-3-1---13-31---1-3-14----------------------- 
-|-4------4--------4-------4-------4------------------------------- 
-|----------------------------------------------------------------- 
-|----------------------------------------------------------------- 
   1 + 2 + 3 + 4 + 1 + 2 + 3 + 4 + 1 + 2 + 3 + 4 + 1 + 2 + 3 + 4 + 
 
ending 
guitar 1 let ring               Guitar 2 let ring 
-|-0---------------             -|----------------- 
-|-1---------------             -|-7--------------- 
-|-0---------------             -|----------------- 
-|-----------------             -|----------------- 
-|-----------------             -|----------------- 
-|-----------------             -|----------------- 
   1 + 2 + 3 + 4 +                 1 + 2 + 3 + 4 + 
 
  
  
  
Copyright 1999-2005 Mxtabs   Help/Errors | Privacy Policy | Advertise | FAQ   
 
 

		  

Full key step upFull key step up
Half key step upHalf key step up
Half key step downHalf key step down
Full key step downFull key step down
hide glossary

See also:

tabs Simon & Garfunkel - Sounds of silence tabs Guns N' Roses - November Rain tabs Chuck Berry - Johnny B. Goode tabs Foo Fighters - Everlong (acústico) tabs John Mayer - Belief tabs Jimi Hendrix Experience - Voodoo Child
e-chords

Other versions:

tabs Modest Mouse - Float On
auto scroll beats size up size down change color hide chords drawings
tab show chords e-chords YouTube Clip e-chords hide all tabs e-chords go to top tab

share