Modest Mouse

Bury Me With It

Modest Mouse

tabs Beginner beginner

by  WEEZER PILLOWS

save to print version add songbook text version e-mail correct tuner
chordsukulelecavacokeyboardtabbassdrumsharmonicaflute Guitar Pro
close

there isn't a video lesson for this song

chords

Bury Me With It

	  		bury me with it 
 
intro 
e|--4-4--5-5--7-7--7-7-- 
b|--2-2--3-3--5-5--5-5-- 
g|---------------------- 
d|---------------------- 
a|---------------------- 
e|---------------------- 
 
Chorus 
 
F#5    G5          A5 
Please bury me with it 
 
bridge 
e|--9-99--7-77--5-55--2-22-- 
b|--7-77--5-55--3-33--2-22-- 
g|-------------------------- 
d|-------------------------- 
a|-------------------------- 
e|-------------------------- 
 
ending 
e|--4-4--5-5--7~-- 
b|--2-2--3-3--5~-- 
g|---------------- 
d|---------------- 
a|---------------- 
e|---------------- 
 
  enjoy 
 
 
 
 

		  

Full key step upFull key step up
Half key step upHalf key step up
Half key step downHalf key step down
Full key step downFull key step down
hide glossary

See also:

tabs Van Halen - Pretty Woman tabs The Strokes - Last Nite tabs Guns N' Roses - Welcome to The Jungle tabs Foo Fighters - The Pretender tabs 4 Non Blondes - What's Up? tabs Aerosmith - I Don't Want To Miss A Thing
e-chords

Other versions:

tabs Modest Mouse - Bury Me With It tabs Modest Mouse - Bury Me With It (ver. 2)
auto scroll beats size up size down change color hide chords drawings
tab show chords e-chords YouTube Clip e-chords hide all tabs e-chords go to top tab

share