Moderatto

Capitan

Moderatto

tabs

by  LINEKERS

save to print version add songbook text version e-mail correct tuner
chordsukulelecavacokeyboardtabbassdrumsharmonicaflute Guitar Pro
close

there isn't a video lesson for this song

chords

Capitan

	  		DRUMS 
Un dia en una rifa me saque un viaje en crucero, 
y dije 'Oh my God', esto es pa' gente de dinero, 
la fama y la fortuna que ahora me acompañan, 
diran que soy suertudo desayuno con 'champagne' 'baby'. 


    RIFF A (Da same ritm like 'Walk this way' of Aerosmith) 
e |---------------------------|------------------------------| 
b |---------------------------|------------------------------| 
G |---------------------------|------------------------------| 
D |--------2--------2---------|---------2--------2------2----| 
A |--0-1-2----0-1-2-----------|---0-1-2----0-1-2-------------| 
E |--------------------0------|---------------------3-0------| 

e |---------------------------|------------------------------| 
b |---------------------------|------------------------------| 
G |---------------------------|---------------------2--------| 
D |--------2--------2---------|---------2--------2--2--------| 
A |--0-1-2----0-1-2-----------|---0-1-2----0-1-2----0--------| 
E |--------------------0------|------------------------------| 


    RIFF B 
e |---------------------------------|---------------------------------| 
b |-------------------1-------------|-------------------1-------------| 
G |--------0--0-2-0-----0-0-3-0-2-0-|--------0--0-2-0-----0-0-3-0-2-0-| 
D |---------------------------------|---------------------------------| 
A |--3-3-3----------3---------------|--3-3-3----------3---------------| 
E |---------------------------------|---------------------------------| 

RIFF B ------> 
Que clase de mujeres se estan aqui asoleando, 
como las que el doctor a mi me estaba recetando, 
y a mi camarote invite a una de ellas, 
cuando cruzo la puerta se veia realmente buena. 


RIFF A ------> 
Se acuesta en la cama, me dijo estar cansada, 
de que la persiguiera su marido, era casada; 
se asomo por la escotilla, y mientras se escondia, 
tremendo animalote me queria hacer papilla. 


    RIFF C 
e|---------------------|---------------------| 
b|---------------------|---4-3-4--0-3-0-2-0--| 
G|---0-2-3--0-3-0-2-0--|---------------------| 
D|---------------------|---3-3-3-------------| 
A|---3-3-3-------------|---------------------| 
E|---------------------|---------------------| 

	RIFF C ------> 
	Capitan,  capitan 
	Capitan,  capitan 
	Capitan,  capitan 
	Capitan...  capitan 


	RIFF A ------> 

RIFF A ------>					RIFF C ------> 
Entonces ya mi suerte empezaba a cambiar,		Capitan,  capitan 
cuando de repente el barco fue a encallar,		Capitan,  capitan 
contra un arrecife nos fuimos a embarrar,		Capitan,  capitan 
y todo por los celos de este pinche capitan.		Capitan...  capitan 


RIFF A ------> 
Agarre mi salvavidas, mas no era el de la 'tele', 
a dejar este barquito, a nadar eso si duele, 
ya todos en las lanchas claro bien agarrados, 
empezamos a flotar por este grandisimo oceano. 


RIFF B ------> 					RIFF C ------> 
Llegamos a una isla no lo podia creer,			Capitan,  capitan 
palmera, cubas, playa, y no estaba mi mujer,		Capitan,  capitan 
uno de mis sueños se acaba de realizar,			Capitan,  capitan 
una isla desierta y despues de naufragar.		Capitan...  capitan 



    RIFF D (Pa' el Final) 
e |---------------------------|---------------------------| 
b |---------------------------|---------------------------| 
G |---------------------------|--------------------2------| 
D |--------2--------2---------|--------2--------2--2------| 
A |-----------0-1-2-----------|-----------0-1-2----0------| 
E |--0-3-4-------------0------|--0-3-4--------------------| 



   RIFF Drums (Yo lo uso cuando la bataca) 
e||---------------------------------------------| 
b||--13x-------10x------13x-13x--13x--10x-------| 
G||--13x--11x--11x--11x-----11x--11x--11x--11x--| 
D||---------------------------------------------| 
A||---------------------------------------------| 
E||---------------------------------------------| 
		  

Full key step upFull key step up
Half key step upHalf key step up
Half key step downHalf key step down
Full key step downFull key step down
auto scroll beats size up size down change color hide chords drawings
tab show chords e-chords YouTube Clip e-chords hide all tabs e-chords go to top tab

share