Mkto

Wasted

Mkto

tabs

by  JOV-CORREA

save to print version add songbook text version e-mail correct tuner
chordsukulelecavacokeyboardtabbassdrumsharmonicaflute Guitar Pro
close

there isn't a video lesson for this song

chords

Wasted

Key:  F# More
Wasted Key C#C#
Wasted Key DD
Wasted Key D#D#
Wasted Key EE(one step down)
Wasted Key FF(half step down)
Wasted Key F#F#(original key)
Wasted Key GG(half step up)
Wasted Key G#G#(one step up)
Wasted Key AA
Wasted Key A#A#
Wasted Key BB
Wasted Key CC
	  		 

BPM=72 
 
 
                     Before-          I've got-          One foot- 
-1---1---1---1---1---1---1---1---0---0---0---0---1---1---1---1---1---1---1---1---| 
-1---1---1---1---1---1---1---1---1---1---1---1---3---3---3---3---3---3---3---3---| 
---2---2---2---2---2---2---2---2---2---2---2---2---2---2---2---2---2---2---2---2-| 
-------------------------------------------------0-------------------------------| 
---------------------------------0-----------------------------------------------| 
-1---------------1---------------------------------------------------------------| 

     I think-    Wasted -    any-more    one foot out- 
-1---1---1---1---0---0---0---0---1---1---1---1---1---1---1---1---| 
-1---1---1---1---1---1---1---1---3---3---3---3---3---3---3---3---| 
---2---2---2---2---2---2---2---2---2---2---2---2---2---2---2---2-| 
---------------------------------0-------------------------------| 
-----------------0-----------------------------------------------| 
-1---------------------------------------------------------------| 

 Night-  Day-    Jack-   Fire-   Is it-  Or-  laa-aate      Am I--| 
-1---1---1---1---0---0---0---0---1---1---1---1---0---0---0--------| 
-3---3---3---3---1---1---1---1---3---3---3---3---1---1---1--------| 
---3---3---2---2---0---0---0---0---3---3---2---2---0---0----------| 
---------0-------------------------------0------------------------| 
-----------------3-----------0-------------------3----------------| 
-3-------------------------------3--------------------------------| 

 Crazy-  Be in-  When-   it all- Give-   Fuck-   We'd-   We'd   Wast--| 
-1---1---0---0---1---1---1---1---1---1---0---0---1---1---1---1--------| 
-3---3---1---1---1---1---3---3---3---3---1---1---1---1---3---3--------| 
---2---2---0---0---2---2---3---3---2---2---0---0---2---2---3---3------| 
-0-------------------------------0------------------------------------| 
---------3---------------1---------------3---------------1------------| 
-----------------1-------------------------------1--------------------| 

 -sted   la la la        la la la        la la la 
-1---1---0---0---1---1---1---1---1---1---0---0---1---1---1---1---| 
-3---3---1---1---1---1---3---3---3---3---1---1---1---1---3---3---| 
---2---2---0---0---2---2---3---3---2---2---0---0---2---2---3---3-| 
-0-------------------------------0-------------------------------| 
---------3---------------1---------------3---------------1-------| 
-----------------1-------------------------------1---------------| 

     Tryna-    a-way I know-   S-tay i wonder-  Find Someone   ins--| 
-1---1---1---1---0---0---0---0---1---1---1---1---1---1---1---1------| 
-1---1---1---1---1---1---1---1---3---3---3---3---3---3---3---3------| 
---2---2---2---2---2---2---2---2---2---2---2---2---3---3---3---3----| 
---------------------------------0----------------------------------| 
-----------------0-------------------------------1------------------| 
-1------------------------------------------------------------------| 

-side                if I        pray            Pray 
-1---1---1---1---0---0---0---0---1---1---1---1---1---1---1---1---| 
-1---1---1---1---1---1---1---1---3---3---3---3---3---3---3---3---| 
---2---2---2---2---2---2---2---2---2---2---2---2---3---3---3---3-| 
---------------------------------0-------------------------------| 
-----------------0-------------------------------1---------------| 
-1---------------------------------------------------------------| 

 Crazy   Be      all     all     give    Fuck    We'd    We'd 
-1---1---0---0---1---1---1---1---1---1---0---0---1---1---1---1---| 
-3---3---1---1---1---1---3---3---3---3---1---1---1---1---3---3---| 
---2---2---0---0---2---2---3---3---2---2---0---0---2---2---3---3-| 
-0-------------------------------0-------------------------------| 
---------3---------------1---------------3---------------1-------| 
-----------------1-------------------------------1---------------| 

 Wasted  la la la        la la la        la la la 
-1---1---0---0---1---1---1---1---1---1---0---0---1---1---1---1---| 
-3---3---1---1---1---1---3---3---3---3---1---1---1---1---3---3---| 
---2---2---0---0---2---2---3---3---2---2---0---0---2---2---3---3-| 
-0-------------------------------0-------------------------------| 
---------3---------------1---------------3---------------1-------| 
-----------------1-------------------------------1---------------| 

 Night   Day     Jack            Is      Is    la-aate 
-1-------1-------0-----------0---1-------1-------0--------------| 
-3-------3-------1-----------1---3-------3-------1--------------| 
-3-------2-------0-----------0---3-------2-------0--------------| 
---------0-------------------------------0----------------------| 
-----------------3-----------0-------------------3--------------| 
-3-------------------------------3------------------------------| 

Am i crazy to think 
---------------------------------------------------------------- 

 Give    Fuck    We'd    We'd Wasteeeee -------------------------|eeeed   I say 
-1---1---0---0---1---1---1---1---1---1---0---0---1---1---1---1---| 
-3---3---1---1---1---1---3---3---3---3---1---1---1---1---3---3---| 
---2---2---0---0---2---2---3---3---2---2---0---0---2---2---3---3-| 
-0-------------------------------0-------------------------------| 
---------3---------------1---------------3---------------1-------| 
-----------------1-------------------------------1---------------| 

 we'd                                    la la la        la la la 
-1---1---0---0---1---1---1---1---1---1---0---0---1---1---1---1---| 
-3---3---1---1---1---1---3---3---3---3---1---1---1---1---3---3---| 
---2---2---0---0---2---2---3---3---2---2---0---0---2---2---3---3-| 
-0-------------------------------0-------------------------------| 
---------3---------------1---------------3---------------1-------| 
-----------------1-------------------------------1---------------| 

         la la la    we'd end up wasted 
-1---1---0---0---1---1---1------| 
-3---3---1---1---1---1---3------| 
---2---2---0---0---2---2--------| 
-0------------------------------| 
---------3---------------1------| 
-----------------1--------------| 
		  

See also:

tabs Marc Broussard - Lonely Night in Georgia tabs Kelly Clarkson - Because Of You tabs Michael Jackson - Beat It (ver. 2) tabs Ryan Cabrera - On the way down tabs Christopher Cross - Sailing tabs My Chemical Romance - Thank You For The Venom
e-chords

Other versions:

tabs Black Flag - Wasted tabs Def Leppard - Wasted tabs Mkto - Wasted tabs Silverchair - Wasted / Fix me tabs Bumblefoot - Wasted Away tabs Urban Waste - Wasted Life
auto scroll beats size up size down change color hide chords drawings
tab show chords e-chords YouTube Clip e-chords hide all tabs e-chords go to top tab

share