Misfits

1 Million Years B.C.

Misfits

tabs Beginner beginner

save to print version add songbook text version e-mail correct tuner
chordsukulelecavacokeyboardtabbassdrumsharmonicaflute Guitar Pro
close

there isn't a video lesson for this song

chords

1 Million Years B.C.

	  		 
Intro  
E|---------|---------|| 
B|---------|---------|| 
G|---------|---------|| 
D|-7-------|-7777777-|| 
A|-5-7-(x4)|-5555555-|| 
E|---5-----|---------|| 
             pm  
Verse 
E|-----------|| 
B|-----------|| 
G|-----------|| 
D|-7---------|| 
A|-5-7-9-5-7-|| 
E|---5-7-3-5-|| 
 
Pre-Chorus 
E|---------|---------|| 
B|---------|---------|| 
G|---------|---------|| 
D|-7-------|---------|| 
A|-5-9-(x2)|-5-7-(x2)|| 
E|---7-----|-3-5-----|| 
 
Chorus 
E|---------|| 
B|---------|| 
G|---------|| 
D|-7-------|| 
A|-5-9-5-7-|| 
E|---7-3-5-|| 
 
Break-Off     
E|-----------------------|| 
B|-----------------------|| 
G|-----------------------|| 
D|-7-6---------777777777-|| 
A|-5-4-9-7-5-7-555555555-|| 
E|-----7-5-3-5-----------|| 
                pm 
 
Drumsticks... 
Intro 
Verse x2 
Pre-Chorus 
Chorus 
Verse x2 
Pre-Chorus 
Chorus 
Break-Off 
Chorus x2 
Break-Off 
 
_______________________________________________________ 
Contribuição: Leandro T. De Angelis([email protected]) 

		  

See also:

tabs Gary Moore - Parisienne Walkways tabs Lifehouse - Blind tabs Cream - Sunshine Of Your Love Accurate tabs Iron Butterfly - In-A-Gadda-De-Vida tabs Gary Moore - Still Got the Blues (ver. 2) tabs Hoobastank - The Reason (ver. 2)
e-chords

Other versions:

tabs Misfits - 1 Million Years B.C.
auto scroll beats size up size down change color hide chords drawings
tab show chords e-chords YouTube Clip e-chords hide all tabs e-chords go to top tab

share