Misc Your Songs

home > Misc Your Songs

Zammek - Never Know Tab

Misc Your Songs

Difficulty: nolevelnolevel

by tercmoraes

tuner correct add songbook print version text version save to e-mail
chordsukulelecavacokeyboardtabbassdrumsharmonicsflute Guitar Pro
chords

Zammek - Never Know

  		
Intro 

e|---------------------------------------------------------------------------| 
B|---------------------------------------------------------------------------| 
G|6-6-6-6--------------------------------------------------------------------| 
D|6-6-6-6-3-3-3-3-4-4-4-4-6-6-6-6--------------------------------------------| 
A|4-4-4-4-3-3-3-3-4-4-4-4-6-6-6-6--------------------------------------------| 
E|--------1-1-1-1-2-2-2-2-4-4-4-4--------------------------------------------| 

Verse 

e|---------------------------------------------------------------------------| 
B|---------------------------------------------------------------------------| 
G|6-6-6-6--------------------------------------------------------------------| 
D|6-6-6-6-3-3-3-3-4-4-4-4-6-6-6-6--------------------------------------------| 
A|4-4-4-4-3-3-3-3-4-4-4-4-6-6-6-6--------------------------------------------| 
E|--------1-1-1-1-2-2-2-2-4-4-4-4--------------------------------------------| 

e|---------------------------------------------------------------------------| 
B|---------------------------------------------------------------------------| 
G|---------------------------------------------------------------------------| 
D|8-8-8-8-6-6-6-6-4-4-4-4-6-6-6-6--------------------------------------------| 
A|8-8-8-8-6-6-6-6-4-4-4-4-6-6-6-6--------------------------------------------| 
E|6-6-6-6-4-4-4-4-2-2-2-2-4-4-4-4--------------------------------------------| 


Chorus 

e|---------------------------------------------------------------------------| 
B|---------------------------------------------------------------------------| 
G|---------------------------------------------------------------------------| 
D|4-4-4-4-6-6-6-6------------------------------------------------------------| 
A|4-4-4-4-6-6-6-6------------------------------------------------------------| 
E|2-2-2-2-4-4-4-4------------------------------------------------------------| 

Pretty simple stuff just repeats all of these patterns throughout the whole song 
	  

Search Paypal
auto scroll beats size up size down change color hide chords drawings
tab show chords e-chords YouTube Clip e-chords hide all tabs e-chords go to top tab