Misc Your Songs

Misc Doodling Tab

Misc Your Songs

Difficulty: nolevelnolevel

by aman%5Fclaudino

tuner correct add songbook print version text version save to e-mail
chordsukulelecavacokeyboardtabbassdrumsharmonicsflute Guitar Pro
close

there isn't a video lesson for this song

request
chords

Misc Doodling

  		 

e|----------------------------------------| 
B|---1---1---1---1------3---3----3---3----| 
G|--2---2---2---2------2---2----2---2-----| 
D|-0---0---0---0------0---0----0---0------| 
A|----------------------------------------| 
E|----------------------------------------| 



e|------------------------------------------------| 
B|-----0----0----0----0---------------------------| 
G|----2----2----2----2------0----0----0----0------| 
D|---0----0----0----0------2----2----2----2-------| x4 
A|------------------------0----0----0----0--------| 
E|------------------------------------------------| 



e|---------2--3--3h2--2/5-------| 
B|-------3----------------------| 
G|---0h2------------------------| 
D|--0---------------------------| 
A|-0----------------------------| 
E|------------------------------| 



************************************ 

| h  Hammer-on 
| /  Slide up 

************************************ 
	  

Search Paypal
auto scroll beats size up size down change color hide chords drawings
tab show chords e-chords YouTube Clip e-chords hide all tabs e-chords go to top tab

share with facebook