Misc Your Songs

home > Misc Your Songs

Luke - Demo Tab

Misc Your Songs

Difficulty: nolevelnolevel

by bombaXXX

tuner correct add songbook print version text version save to e-mail
chordsukulelecavacokeyboardtabbassdrumsharmonicsflute Guitar Pro
chords

Luke - Demo

  		
Intro 
e|------------------------------------------------------------------------------------| 
B|------------------------------------------------------------------------------------| 
G|------------------------------------------------------------------------------------| 
D|--------------------------2-2-2-22-222----------------------------------------------| 
A|2-2-2-22-222--------------0-0-0-00-000-3-3-3-33-333---------------------------------|  
E|0-0-0-00-000-3-3-3-33-333--------------0-0-0-00-000---------------------------------|x2 
pm- - - -- --- - - - -- --- - - - -- --- - - - -- --- 

Verse 
e|------------------------------------------------------------------------------------| 
B|------------------------------------------------------------------------------------| 
G|------------------------------------------------------------------------------------| 
D|----------------------2-2-xx-222----------------------------------------------------| 
A|2-2-xx-222------------0-0-xx-000-3-3-xx-333-----------------------------------------| 
E|0-0-xx-000-3-3-xx-333------------0-0-xx-000-----------------------------------------|x2 

Chorus 
e|------------------------------------------------------------------------------------| 
B|------------------------------------------------------------------------------------| 
G|------------------------------------------------------------------------------------| 
D|--------------------------2-2-2-22-222----------------------------------------------| 
A|2-2-2-22-222--------------0-0-0-00-000-3-3-3-33-333---------------------------------| 
E|0-0-0-00-000-3-3-3-33-333--------------0-0-0-00-000---------------------------------|x2 

Bridge 
same as intro but without palm muting the first note each time you change 
e|------------------------------------------------------------------------------------| 
B|------------------------------------------------------------------------------------| 
G|------------------------------------------------------------------------------------| 
D|--------------------------2-2-2-22-222----------------------------------------------| 
A|2-2-2-22-222--------------0-0-0-00-000-3-3-3-33-333---------------------------------| 
E|0-0-0-00-000-3-3-3-33-333--------------0-0-0-00-000---------------------------------|x2 
pm  - - -- ---   - - -- ---   - - -- ---   - - -- --- 

Verse 
e|------------------------------------------------------------------------------------| 
B|------------------------------------------------------------------------------------| 
G|------------------------------------------------------------------------------------| 
D|----------------------2-2-xx-222----------------------------------------------------| 
A|2-2-xx-222------------0-0-xx-000-3-3-xx-333-----------------------------------------| 
E|0-0-xx-000-3-3-xx-333------------0-0-xx-000-----------------------------------------|x2 

Chorus 
e|------------------------------------------------------------------------------------| 
B|------------------------------------------------------------------------------------| 
G|------------------------------------------------------------------------------------| 
D|--------------------------2-2-2-22-222----------------------------------------------| 
A|2-2-2-22-222--------------0-0-0-00-000-3-3-3-33-333---------------------------------| 
E|0-0-0-00-000-3-3-3-33-333--------------0-0-0-00-000---------------------------------|x2 

Outro  
e|0-0-0-0-0-0-0-0-0-0-0-0-0-0-0-0-0-0-0-0-0-0-0-0-0-0-0-0-0-0-0-0-0-0-0-0-0-0-0-0-----| 
B|0-0-0-0-0-0-0-0-0-0-0-0-0-0-0-0-0-0-0-0-0-0-0-0-0-0-0-0-0-0-0-0-0-0-0-0-0-0-0-0-----| 
G|0-0-0-0-0-0-0-0-0-0-0-0-0-0-0-0-0-0-0-0-x-0-x-0-x-0-x-0-x-0-0-0-0-0-0-0-0-0-0-0-----| 
D|x---x---x---x---x---0---0---0---0---0---2---2---2---2---2---x---x---x---x---x-------| 
A|2---2---2---2---2---x---x---x---x---x---0---0---0---0---0---3---3---3---3---3-------| 
E|0---0---0---0---0---3---3---3---3---3---0---0---0---0---0---0---0---0---0---0-------|x2 
after you play this repeat full song over again but at the very end play the vibrato note :)  

e|0-----------------------------------------------------------------------------------| 
B|0-----------------------------------------------------------------------------------| 
G|0-----------------------------------------------------------------------------------| 
D|x-----------------------------------------------------------------------------------| 
A|2~~~~~~~~---------------------------------------------------------------------------| 
E|0-----------------------------------------------------------------------------------| 

************************************ 

| x  Dead note 
| ~  Vibrato 

************************************ 
	  

Search Paypal
auto scroll beats size up size down change color hide chords drawings
tab show chords e-chords YouTube Clip e-chords hide all tabs e-chords go to top tab