Misc Your Songs

home > Misc Your Songs

Human - The Killers Tab

Misc Your Songs

Difficulty: nolevelnolevel

by fernsantana

tuner correct add songbook print version text version save to e-mail
chordsukulelecavacokeyboardtabbassdrumsharmonicsflute Guitar Pro
chords

Human - The Killers

  		

Tab legend: 
h - hammer on 
p - pull off 
/ - slide up to 
\ - slide down to 
^ - harmonic (pinch at fret shown) 
(eg 0^24 means open string, pinch at where the 24th fret would be) 

Main theme: 

e|-----------0--| 
B|--------0-----| 
G|----1h2-------|    
D|--------2-----|   
A|--------------| 
E|-0------------|   

NB: In some places it's easier to slide from 1 to 2 with your 
index finger instead of trying to hammer on. 

into verse----> 

e|----------0-|-0------2----0---------2----0-----------------0-0 
B|--------0---|--------0-0---------0------------0--4---------0-4 
G|----1-2-----|----1-2---------1-2---------1-2-----------1-2---- 
D|--------2---|--------2-----------2------------1------------1-- 
A|------------|------------------------------------------------- 
E|-0----------|-0-----------0------------4------------4--------- 



e|-0------2-----0---------------------0-----4----4--4----------- 
B|-0------0--0--------2--0---------0-------------0--5----------- 
G|----1-2---------1-2----1-----1-2----------1-2----------------- 
D|--------2-----------2------------2-------------2-------------- 
A|-0------------0----------------------------------------------- 
E|--------------------------0------------0---------------------- 



e|-4-------2-----0-------2-2-----0------0-------0-0------------- 
B|---------0--4----------0-----------0----------0--------------- 
G|----1-2-----------1-2----------1-2--------1-2----------------- 
D|---------1-------------1-----------2----------2--------------- 
A|-2-------------2------------4-----------4--------------------- 
E|-------------------------------------------------------------- 



e|-0------2-----0---------2--------------------------2---------- 
B|-0------0--0---------0-------------0--4---------0------------- 
G|----1-2----------1-2----------1-2-----------1-2--------------- 
D|--------2------------2-------------1------------1------------- 
A|-0------------0------------2-------------2-------------------- 
E|-------------------------------------------------------------- 



e|-7------7-----7--7-----2-----4-------------------------------- 
B|-5------5--5--5--------5---------0--4---------0--2------------ 
G|--------4------------4-------1-2----------1-2----------------- 
D|----6-7----------6-7-------------1------------1--------------- 
A|-------------------------------------------------------------- 
E|-0------------0-----------4------------4---------------------- 

   

e|-0------0----0--0-------0------------0--4------2--0----------- 
B|--------0-0----------0------------0------------0-------------- 
G|----1-2---------1-2-----------1-2----------1-2---------------- 
D|--------2------------2------------2------------2-------------- 
A|-0-----------0-------------4------------4--------------------- 
E|-------------------------------------------------------------- 



e|-----------0--4------2--0------------0-------------0---------- 
B|--------0------------0------------0-------------0------------- 
G|----1-2----------1-2----------1-2-----------1-2--------------- 
D|--------2------------2------------2-------------2------------- 
A|-0------------0------------0-------------0-------------------- 
E|-------------------------------------------------------------- 



e|----------------------------------------4------2--0----------- 
B|--------0--4---------0--4---------0--4---------0-------------- 
G|----1-2----------1-2----------1-2----------1-2---------------- 
D|--------1------------1------------1------------1-------------- 
A|-2------------2------------2------------2--------------------- 
E|-------------------------------------------------------------- 

Chorus 

e|----------------0--2--2-----4--------------------------------- 
B|-------0-----0-----0-----------------4------------------------ 
G|-------1-----1-----1--------4--------4------4----------------- 
D|-------4-----2-----2-----------4----------4------------------- 
A|----2-----2-----2-----2-----6-----6-----6--------------------- 
E|-0-----------------------4------------------------------------ 



e|--------------9-----7--7-----0-------------------------------- 
B|--5--------5--------9--9--------------0----------------------- 
G|--4-----6-----9--------------1-------------------------------- 
D|-----7-----7-----7-----7-----2--1--2-----2--1--2-------------- 
A|--0----------------------------------------------------------- 
E|--------------------------0----------------------------------- 



e|--------------2-----7--7-----0-------------------------------- 
B|-----------0--------7--7-----5--------4h5--------------------- 
G|--------2-----2-----------------6---------6-----6------------- 
D|-----1-----1-----1--7--------6-----6---------6---------------- 
A|--2--------------------6--4----------------------------------- 
E|-------------------------------------------------------------- 

e|--------------5-----4--2--------------------------4-/-7------- 
B|--0--------2---------------------------0^24------------------- 
G|--------4-----2-----2--2------------2------------------------- 
D|-----2-----2-----2-----2-p-1-----1---------------------------- 
A|--0---------------------------2------------------------------- 
E|-------------------------------------------------------------- 

e|--9-----------7--------4--------------4--2--0--2-------------- 
B|--------------------------------0--4--5----------------------- 
G|-----------8--9----------------------------------------------- 
D|--------9--------9--2--------4-------------------------------- 
A|-----7-------------------------------------------------------- 
E|--0-----------------------4----------------------------------- 

e|--2--------------0-------------------------------------------- 
B|-----0-----2--4-----4----------------------------------------- 
G|-----------------------1-------------------------------------- 
D|--------2----------------------------------------------------- 
A|--4----------------------------------------------------------- 
E|-------------------------------------------------------------- 

e|---------------5-----4-----2-----------------2---------------- 
B|---------0h-2--------0--------------2------------------------- 
G|--2------2--------6-----6--2-----2-----2--------2------------- 
D|-----2------------------------4-----------4------------------- 
A|--0----------------------------------------------------------- 
E|---------------------------2---------------------------------- 

e|--0-----------5-----4---2p----0------------------------------- 
B|--2--------2--0---------0------------------------------------- 
G|--------2--------6------1------------------------------------- 
D|-----2------------------2------------------------------------- 
A|--0-----------0---------2------------------------------------- 
E|------------------------0------------------------------------- 
	  

Search Paypal
auto scroll beats size up size down change color hide chords drawings
tab show chords e-chords YouTube Clip e-chords hide all tabs e-chords go to top tab