Misc Your Songs

home > Misc Your Songs

Gallery - Shrapnel Tab

Misc Your Songs

Difficulty: nolevelnolevel

by sabrjoao

tuner correct add songbook print version text version save to e-mail
chordsukulelecavacokeyboardtabbassdrumsharmonicsflute Guitar Pro
chords

Gallery - Shrapnel

  		Verse 
e|----------------9------------------------------------------------------0-------------| 
B|-------10-----------10--10------10-----------10------------------------5-------------| 
G|---11----11---------------11-11---11-----------11-9----9----8----8-----6-------------| x3 
D|-12--12----12-11-(11)-11----9--9----9--9-----------10---10---10---10---7-------------| 
A|-------------------------------------12-12-12--------10---10---10---10---------------| 
E|-------------------------------------------------------------------------------------| 

Verse Variation 
e|----0-------------| 
B|----5-5h7p5---0---| 
G|----6------6-6-6--| 
D|----7-------7---7-| 
A|------------------| 
E|------------------| 

Chorus 
e|----9---7--0----------| 
B|----10--9--5----------| 
G|----11--9--6----------| x2 
D|-----------7----------| 
A|----------------------| 
E|----------------------| 

Interlude 
e|----------7------------| 
B|----5-4---5------------| 
G|----5-5---6------------| 
D|----------7------------| 
A|-----------------------| 
E|-----------------------| 

Verse 
e|----------------9------------------------------------------------------0-------------| 
B|-------10-----------10--10------10-----------10------------------------5-------------| 
G|---11----11---------------11-11---11-----------11-9----9----8----8-----6-------------| x2 
D|-12--12----12-11-(11)-11----9--9----9--9-----------10---10---10---10---7-------------| 
A|-------------------------------------12-12-12--------10---10---10---10---------------| 
E|-------------------------------------------------------------------------------------| 

Chorus 
e|----9---7--0----------| 
B|----10--9--5----------| 
G|----11--9--6----------| x2 
D|-----------7----------| 
A|----------------------| 
E|----------------------| 

Chorus Variation 
e|----9---7--0-------9---7--0--------| 
B|----10--9--5--0----10--9--5--------| 
G|----11--9--6--1----11--9--6-9-7----| x1 
D|-----------7--2-----------7----9-4-| 
A|--------------2--------------------| 
E|--------------0--------------------| 

Bridge 
E|----7--5--------0--| 
B|----7--5-----2--0--| 
G|----7--6-----2--1--| x4 
D|----9--7--------2--| 
A|----9--7--------2--| 
E|----7--5--2-2---0--| 

Solo 
e|------------------------------------------------------------------| 
B|------------------------------------------------------------------| 
G|------------------------------------------------------------------| 
D|----------14/16-14------------------12-11-11--11h12p11------------| x2 
A|--14-14-14--------12-12-12-12--12-12-12----12---------12----------| 
E|------------------------------------------------------------------| 

e|---------------------0-----------| 
B|----7-----5-------2--0-----------| 
G|----9b11--7b9-----2--1-----------| x2 
D|---------------------2-----------| 
A|---------------------2-----------| 
E|---------------2-2---0-----------| 

e|----------------------------------7--| 
B|----------------------------------5--| 
G|------11--11--11----11--9----8----6--| x1 
D|----12---11--9-----------10---10--7--| 
A|------------------12-----------------| 
E|-------------------------------------| 

Outro 
e|----10--10--9---12/14-14-14-14-12----8---8---5-------| 
B|----10--10--10-------------------14--8---8---5-------| 
G|----11--11--11-----------------------9---8---6--7-6--| x3 
D|----12--12--9------------------------10--10--7-----7-| 
A|----12--12---------------------------10--10--7-------| 
E|----10--9----------------------------8---8---5-------| 

Verse 
e|----------------9-------------------12/14-14-14-14-12----------------------------------0~--| 
B|-------10-----------10--10------10------------------14---------------------------------5~--| 
G|---11----11---------------11-11---11-----------------------9----9----8----8------------6~--| 
D|-12--12----12-11-(11)-11----9--9----9--------------------10----10---10---10------------7~--| 
A|--------------------------------------------------------10----10---10---10-----------------| 
E|-------------------------------------------------------------------------------------------| 



************************************ 

| (n)  Ghost note 
| h    Hammer-on 
| p    Pull-off 
| /    Slide up 
| b    Bend 
| ~    Vibrato 

************************************ 
	  

Search Paypal
auto scroll beats size up size down change color hide chords drawings
tab show chords e-chords YouTube Clip e-chords hide all tabs e-chords go to top tab