Misc Your Songs

home > Misc Your Songs

Fraiche - Away Tab

Misc Your Songs

Difficulty: nolevelnolevel

by ubirbomfim

tuner correct add songbook print version text version save to e-mail
chordsukulelecavacokeyboardtabbassdrumsharmonicsflute Guitar Pro
chords

Fraiche - Away

  		. 
e|----------------|----------------|----------------|----------------| 
B|--------1-------|----------------|--------0h1-----|----------------| 
G|----2-----2-----|0-----0-----0---|------0-----2p0-|1-----1-----1---|x4 
D|----2-------2---|--2-----2-------|----0-----------|--2-----2-------| 
A|0-------------0-|----3-----3-----|2---------------|----2-----2-----| 
E|----------------|----------------|----------------|----------------| 

                              let ring 
e|----------------|-----------0----|----------------|----------------| 
B|----------1-----|-0---------1----|----------1p0---|----------------| 
G|------2-----0---|-0---------0----|--------------0-|0---0-0-0-------| 
D|----------2-----|-----------2----|----------------|0---0-0-0-----0-| 
A|2p0---0-------2-|/3---------3----|----------------|2---2-2-2---2---| 
E|----------------|-----0h3---3----|----------------|3---3-3-3-3-----| 


e|----------------|----------------|----------------|----------------| 
B|x---x-x-x-------|----------------|1---1-1-1-1-1-1-|0---------------| 
G|2---2-2-2-----2-|0---0-0-0-0-0-0-|0---0-0-0-2-2-2-|0---0-0-0-0-0-0-| 
D|4---4-4-4---4---|2---2-2-2-2-2-2-|2---2-2-2-2-2-2-|0---0-0-0-2-2-2-| 
A|5---5-5-5-5-----|3---3-3-3-2-2-2-|3---3-3-3-0-0-0-|2---2-2-2-2-2-2-| 
E|5---5-5-5-------|3---3-3-3-0-0-0-|----------------|3---3-3-3-0-0-0-| 


e|----------------|0---------0-0---|0---------0-0-0-|2---2-2-2-3p2-2-| 
B|1---1-1-1-1-1-1-|0---0-0-0-0-0-0-|1---1-1-1-1-1-1-|3---3-3-3-3---3-| 
G|0---0-0-0-2-2-2-|0---0-0-0-0-0-0-|0---0-0-0-2-2-2-|2---2-2-2-2---2-| 
D|2---2-2-2-2-2-2-|2---2-2-2-2-2-2-|2---2-2-2-2-2-2-|0---0-0-0-0---0-| 
A|3---3-3-3-0-0-0-|3---3-3-3-2-2-2-|3---3-3-3-0-0-0-|----------------| 
E|----------------|3---3-3-3-0-0-0-|----------------|----------------| 

           (play '232' as 2h3p2)    let ring 
e|2---2-2-2-232-2-|2---2-2-2-3p2-2-|2---------------|----------------| 
B|3---3-3-3-3---3-|3---3-3-3-3---3-|3---------------|----------------| 
G|2---2-2-2-2---2-|2---2-2-2-2---2-|2---------------|----------------| 
D|0---0-0-0-0---0-|0---0-0-0-0---0-|0---------------|----------------| 
A|----------------|----------------|----------------|----------------| 
E|----------------|----------------|----------------|----------------| 

e|----------------|----------------|----------------|----------------| 
B|------1---------|------0---------|------1---------|------0---------| 
G|----------2-----|----------0-----|----------0-----|----------0-----|x3 
D|----2-------2---|----0-------0---|----2-------2---|----0-------0---| 
A|0---------------|2---------------|3---------------|2---------------| 
E|----------------|----------------|----------------|----------------| 


e|----------------|----------------|----------------|----------------| 
B|------1---------|------0---------|------1---------|------0---------| 
G|----------2-----|----------0-----|----------0-----|----------0-----| 
D|----2-------2---|----0-------0---|----2-------2---|----0-------0h2-| 
A|0---------------|2---------------|3---------------|2---------------| 
E|----------------|----------------|----------------|----------------| 


e|----------------|----------------|----------------|----------------| 
B|------1---------|------------0h1-|------1--p0-----|------0---------| 
G|------------2p0-|------0---------|------------0---|----------0-----|x2 
D|----2-----2-----|----0-----0-----|----2--------p0-|----0-------0h2-| 
A|0---------------|2---------------|3---------------|2---------------| 
E|----------------|----------------|----------------|----------------| 


e|----------------|----------------|------0---------|----------------| 
B|------1---------|------------0h1-|------1--p0-----|------0---------| 
G|------------2p0-|------0---------|------------0---|----------0-----| 
D|----2-----2-----|----0-----0-----|----2--------p0-|----0-------0h2-| 
A|0---------------|2---------------|3---------------|2---------------| 
E|----------------|----------------|----------------|----------------| 


e|----------------|----------------|------0---------|------3-------0-| 
B|------1---------|------------0h1-|------1-------3-|----------------| 
G|------------2p0-|------0---------|------0-----0---|------0-----0---| 
D|----2-----2-----|----0-----0-----|----2-----2-----|----0-----0-----| 
A|0---------------|2---------------|3---------------|2---------------| 
E|----------------|----------------|----------------|----------------| 


************************************ 

| x   Dead note 
| h   Hammer-on 
| p   Pull-off 
| /   Slide up 

************************************ 
	  

Search Paypal
auto scroll beats size up size down change color hide chords drawings
tab show chords e-chords YouTube Clip e-chords hide all tabs e-chords go to top tab