Misc Traditional

home > Misc Traditional

She Moved Through The Fair Tab

Misc Traditional

Difficulty: nolevelnolevel

by renejunior

tuner correct add songbook print version text version save to e-mail
chordsukulelecavacokeyboardtabbassdrumsharmonicsflute Guitar Pro
chords

She Moved Through The Fair

  		Alternatively you can tune the 5th string (A-string)one step down to G and when the  
6th string 3rd fret is played, play the open 5th string instead. 

Part A 

    --3-- 
    E  E  E     H        H        E  E     Q    Q    E  E     H        H        E  E 
e|-----------|--------------------------|------------------|-----------------------0--| 
B|--------0--|--1-----------------0-h1--|--3----3----1-----|--------------------3-----| 
G|--0-h2-----|--0-----------------------|---------------2--|--0-----------------------| 
D|-----------|-----------0--------------|-------0----------|-----------0--------------| 
A|-----------|--------------------------|------------------|--------------------------| 
E|-----------|--3-----------------------|--3---------------|--3-----------------------| 


    H        H        E  E     H        H        E  E     H        H        E  E 
e|--1-----------------3-----|--0-----------------------|--------------------------| 
B|--0--------------------3--|--0-----------------3-p0--|--1-----------------0-h1--| 
G|--------------------------|--------------------------|--0-----------------------| 
D|-----------0--------------|-----------0--------------|-----------0--------------| 
A|--------------------------|--------------------------|--------------------------| 
E|--3-----------------------|--3-----------------------|--3-----------------------| 

                      --3-- 
    H        H        E  E  E     H        H        E  E     H        H        E  E 
e|-----------------------------|--1-----------------3-----|--0-----------------------| 
B|--3-----------------------0--|--0--------------------3--|--0-----------------3-p0--| 
G|--0-----------------0-h2-----|--------------------------|--------------------------| 
D|-----------0-----------------|-----------0--------------|-----------0--------------| 
A|-----------------------------|--------------------------|--------------------------| 
E|--3--------------------------|--3-----------------------|--3-----------------------| 

                                                 --3-- 
    H        H        E  E     H        H        E  E  E     H        H        E  E 
e|--------------------------|-----------------------------|--------------------------| 
B|--1-----------------0-h1--|--3-----------------------0--|--1-----------------0-h1--| 
G|--0-----------------------|--0-----------------0-h2-----|--0-----------------------| 
D|-----------0--------------|-----------0-----------------|-----------0--------------| 
A|--------------------------|-----------------------------|--------------------------| 
E|--3-----------------------|--3--------------------------|--3-----------------------| 

                                                                       --3-- 
    Q    Q    E  E     Q    Q    Q       H.   H          H        Q    E  E  E 
e|------------------|-----------------|---------------|-------------------------| 
B|--3----3----1-----|-----------------|---------------|----------------------0--| 
G|---------------2--|-------0----0----|--0------------|----------------0-h2-----| 
D|-------0----------|--3--------------|-------0-------|-----------0-------------| 
A|------------------|-----------------|---------------|-------------------------| 
E|--3---------------|--1--------------|--3------------|--3----------------------| 


Part B 
    H        H        E  E     Q    Q    E  E     Q    Q    Q       H        H        E  E 
e|--------------------------|------------------|-----------------|-----------------------0--| 
B|--1-----------------0-h1--|--3----3----1-----|-----------------|--------------------3-----| 
G|--0-----------------------|---------------2--|-------0----0----|--0-----------------------| 
D|-----------0--------------|-------0----------|--3--------------|-----------0--------------| 
A|--------------------------|------------------|-----------------|--------------------------| 
E|--3-----------------------|--3---------------|--1--------------|--3-----------------------| 


    H        H        E  E     H        H        E  E     H        H        E  E      
e|--1-----------------3-----|--0-----------------------|--------------------------| 
B|--0--------------------3--|--0-----------------3-p0--|--1-----------------0-h1--| 
G|--------------------------|--------------------------|--0-----------------------| 
D|-----------0--------------|-----------0--------------|-----------0--------------| 
A|--------------------------|--------------------------|--------------------------| 
E|--3-----------------------|--3-----------------------|--3-----------------------| 


    H        H        E  E 
e|-----------------------0--| 
B|--3-----------------3-----| 
G|--0-----------------------| 
D|-----------0--------------| 
A|--------------------------| 
E|--3-----------------------| 


    H        H        E  E     H        H        E  E     H        H        E  E 
e|--1-----------------3-----|--0-----------------------|--------------------------| 
B|--0--------------------3--|--0-----------------3-p0--|--1-----------------0-h1--| 
G|--------------------------|--------------------------|--0-----------------------| 
D|-----------0--------------|-----------0--------------|-----------0--------------| 
A|--------------------------|--------------------------|--------------------------| 
E|--3-----------------------|--3-----------------------|--3-----------------------| 

                                          --3-- 
    H        H        E  E  E     H        H        E  E     Q    Q    E  E 
e|-----------------------------|--------------------------|------------------| 
B|--3-----------------------0--|--1-----------------0-h1--|--3----3----1-----| 
G|--------------------0-h2-----|--0-----------------------|---------------2--| 
D|-----------0-----------------|-----------0--------------|-------0----------| 
A|-----------------------------|--------------------------|------------------| 
E|--3--------------------------|--3-----------------------|--3---------------| 

    Q    Q    Q       H.   H          H        Q 
e|-----------------|---------------|----------------| 
B|-----------------|---------------|----------------| 
G|-------0----0----|--0------------|----------------| 
D|--3--------------|-------0-------|-----------0----| 
A|-----------------|---------------|----------------| 
E|--1--------------|--3------------|--3-------------| 

************************************ 

| h   Hammer-on 
| p   Pull-off 

************************************ 
	  

Full key step upFull key step up
Half key step upHalf key step up
Half key step downHalf key step down
Full key step downFull key step down
Search Paypal
auto scroll beats size up size down change color hide chords drawings
tab show chords e-chords YouTube Clip e-chords hide all tabs e-chords go to top tab