Misc Television

Thomas The Tank Engine Theme

Misc Television

tabs Intermediate intermediate

by  GUSTSILVA

save to print version add songbook text version e-mail correct tuner
chordsukulelecavacokeyboardtabbassdrumsharmonicaflute Guitar Pro
close

there isn't a video lesson for this song

chords

Thomas The Tank Engine Theme

	  		-------------------12-----------------------------------------------| 
--------12-13---15--------------------------------------------------| 
--12-14---------------13-----14----14-12----13-h-14--12-12-14-12----| 
--------------------------------15----------------------------------| 
--------------------------------------------------------------------| 
--------------------------------------------------------------------| 

--------------------------------------------------------------------| 
--------------------------------------------------------------------| 
--11-12-11-12-11-12-12-----11-12-11-12-13-13------------------------| 
--------------------------------------------------------------------| 
--------------------------------------------------------------------| 
--------------------------------------------------------------------| 

----------------------------------------------------------------13--| 
----------------------------------------------------------14-14-----| 
--------11-12---15-------12--13------13-12-11-------15-15-----------| 
--12-15--------------15-----------------------15-15-----------------| 
--------------------------------------------------------------------| 
--------------------------------------------------------------------| 

--------------------------------------------------------------------| 
--------------13-13-16--------------------------14------------------| 
--------13-13-----------------------------15-15---------------------| 
--13-13-----------------------------15-15---------------------------| 
------------------------------16-16---------------------------------| 
--------------------------------------------------------------------| 

--------------------------------------------------------------------| 
--16-16---13-h-14--13-----------------------------------------------| 
------------------------13------------------------------------------| 
--------------------------------------------------------------------| 
--------------------------------------------------------------------| 
--------------------------------------------------------------------| 
		  

See also:

tabs Prototype - The Way It Ends tabs Idir - A Vava Inouva tabs Misc Television - Brooklyn Nine-nine Background Guitar Jakes Proposal tabs Misc Computer Games - Chrono Trigger - Corridors Of Time tabs Misc Television - Family Guy - Iraq Lobster tabs Macano - Te Amo
e-chords

Other versions:

tabs Misc Television - Thomas The Tank Engine Theme
auto scroll beats size up size down change color hide chords drawings
tab show chords e-chords YouTube Clip e-chords hide all tabs e-chords go to top tab

share