Misc Television

Spongebob Squarepants Opening Theme

Misc Television

tabs

by  ALYSLIMA

save to print version add songbook text version e-mail correct tuner
chordsukulelecavacokeyboardtabbassdrumsharmonicaflute Guitar Pro
close

there isn't a video lesson for this song

chords

Spongebob Squarepants Opening Theme

	  		

  

Line 1: Lead Guitar ('who lives...') 

e||------|------|------|------|------|------|------|-------|------|| 
B||------|------|------|------|------|8---8-|------|-------|------|| 
G||------|------|------|------|------|--9---|7-9-7-|-------|------|| 
D||------|--2---|------|--2---|------|------|------|9-7----|------|| 
A||----5-|5---5-|2---2-|5---5-|2-----|------|------|----10-|10----|| 
E||------|------|--3---|------|------|------|------|-------|------|| 


Line 1: Rhythm Guitar 

e||------|------|------|------|------|------|------|------|------|| 
B||------|------|------|------|------|------|------|------|------|| 
G||------|------|------|------|------|------|------|------|------|| 
D||------|5-5-5-|5-5-5-|5-5-5-|5-----|5-x-x-|5-x-x-|5-x-x-|5-----|| 
A||------|5-5-5-|5-5-5-|5-5-5-|5-----|5-x-x-|5-x-x-|5-x-x-|5-----|| 
E||------|3-3-3-|3-3-3-|3-3-3-|3-----|3-x-x-|3-x-x-|3-x-x-|3-----|| 
          v ^ v  ^ v ^  v ^ v  ^ xxxx v ^ v  ^ v ^  v ^ v  ^ xxxx 

Line 2: Lead Guitar ('absorbent and yellow...') 

e||------|------|------|------|------|------|------|------|| 
B||------|------|------|------|8-8-8-|8-----|----8-|8-----|| 
G||------|------|--2---|------|------|--9---|--9---|------|| 
D||5---55|2---2-|5---5-|2-----|------|----10|10----|------|| 
A||------|--3---|------|------|------|------|------|------|| 
E||------|------|------|------|------|------|------|------|| 


Line 2: Rhythm Guitar 

e||------|------|------|------|------|------|------|------|| 
B||------|------|------|------|------|------|------|------|| 
G||5-5-5-|5-5-5-|5-5-5-|5-----|5-x-x-|5-x-x-|5-x-x-|5-----|| 
D||5-5-5-|5-5-5-|5-5-5-|5-----|5-x-x-|5-x-x-|5-x-x-|5-----|| 
A||3-3-3-|3-3-3-|3-3-3-|3-----|3-x-x-|3-x-x-|3-x-x-|3-----|| 
E||------|------|------|------|------|------|------|------|| 
   v ^ v  ^ v ^  v ^ v  ^ xxxx v ^ v  ^ v ^  v ^ v  ^ xxxx 


Line 3: Lead Guitar ('if nautical nonsense...') 

e||------|------|------|------|------|------|------|------|------|| 
B||------|------|------|------|------|8-----|------|------|------|| 
G||------|------|------|------|------|--9-7-|------|------|------|| 
D||------|--2---|------|--2---|------|------|9-7---|7-9-7-|------|| 
A||----5-|5---5-|2---2-|5---5-|2-----|------|----10|------|10----|| 
E||------|------|--3---|------|------|------|------|------|------|| 


Line 3: Rhythm Guitar: same as Line 1 


Line 4: Lead Guitar ('then drop on...') 

e||------|------|------|------|------|------|------|------|| 
B||------|------|------|------|----8-|8-----|------|------|| 
G||------|------|--2---|------|--9---|--9---|------|------|| 
D||5---55|2---2-|5---5-|2-----|10----|----10|10----|------|| 
A||------|--3---|------|------|------|------|------|\\\\\\|| 
E||------|------|------|------|------|------|------|\\\\\\|| 


Line 4: Rhythm Guitar: same as Line 2                    


Refrain: Lead Guitar ('spongebob squarepants...') 

e||------|------|------|------|| 
B||------|------|------|------|| 
G||12----|9-----|7-----|------|| 
D||12----|9-----|7-----|9-----|| (3x) 
A||10----|7-----|5-----|9-----|| 
E||------|------|------|7-----|| 


Refrain: Rhythm Guitar 

e||------|------|------|------|| 
B||------|------|------|------|| 
G||------|5-----|7-----|4-----|| 
D||5-----|5-----|7-----|4-----|| (3x) 
A||5-----|3-----|5-----|2-----|| 
E||3-----|------|------|------|| 


Lead Guitar & Rhythm Guitar ('spongebob squarepants!') 

e||------|------|------|------|------|| 
B||------|------|------|------|------|| 
G||7-----|9-----|------|11----|12----|| 
D||7-----|9-----|------|11----|12----|| 
A||5-----|7-----|------|9-----|10----|| 
E||------|------|------|------|------|| 


Outro: Lead Guitar only 

e||------|------|------|------|------|------|------|----7-|----7-|------|------|| 
B||----8-|----8-|------|------|------|------|------|8-10--|10----|8-----|8-----|| 
G||9-----|7-----|7-----|------|------|------|------|------|------|----7-|------|| 
D||------|------|----9-|7-9-7-|------|7-9---|------|------|------|------|------|| 
A||------|------|------|------|10----|------|10-10-|------|------|------|------|| 
E||------|------|------|------|------|------|------|------|------|------|------|| 



************************************ 

| /   slide up 
| \   slide down 
| \\\ pick slide down 
| h   hammer-on 
| p   pull-off 
| ~   vibrato 
| +   harmonic 
| x   Mute note 
| b   Bend 
| pb  Pre-bend 
| br  Bend release 
| pbr Pre-bend release 
| brb Bend release bend 
| v   downstroke 
| ^   upstroke 

************************************ 
		  

See also:

tabs Misc Computer Games - Assassins Creed Black Flag - Randy Dandy O tabs Dirty Heads - Sloths Revenge tabs Misc Television - Gravity Falls Theme tabs Misc Computer Games - Resident Evil 4 - Save Theme tabs Misc Computer Games - Sea Of Thieves - Becalmed Hurdy-gurdy tabs Misc Computer Games - Rogue Legacy - Lamprey
e-chords

Other versions:

tabs Misc Television - Spongebob Squarepants Opening Theme
auto scroll beats size up size down change color hide chords drawings
tab show chords e-chords YouTube Clip e-chords hide all tabs e-chords go to top tab

share