Misc Television

Better Call Saul - Outro Theme

Misc Television

tabs

by  HEBEALMEIDA

save to print version add songbook text version e-mail correct tuner
chordsukulelecavacokeyboardtabbassdrumsharmonicaflute Guitar Pro
close

there isn't a video lesson for this song

chords

Better Call Saul - Outro Theme

	  		

See my guitar pro/ powertab / bass tab for more. 

Guitar 1 :                                                                                 
e |----------------------------------------------------------------------------| 
B |----------------------------------------------------------------------------| 
G |----------------------------2L----------------2-----------------------------| 
D |-4b-------------------------0L----------------0-----------------------------| 
A |-2b----------------------------------------------------2-----0--2-----------| 
E |----------------------------------------------------------------------------| 

  w 
-------------------------------------------------------------------------------| 
-------------------------------------------------------------------------------| 
-------------------------------------------------------------------------9--11.| 
-------------------------------------------------------------------------------| 
--2----------------------------------------------------------------------------| 
-------------------------------------------------------------------------------| 


-------------------------------------------------------------------------------| 
-------------------------------------------------------------------------------| 
---------------------7-----------9-----------7---------------------------------| 
---------------------------------------------------9---------------------------| 
-------------------------------------------------------------------------------| 
-------------------------------------------------------------------------------| 


-------------------------------------------------------------------------------| 
-------------------------------------------------------------------------------| 
-----------------------------2L----------------2-------------------------------| 
--4b-------------------------0L----------------0-------------------------------| 
--2b----------------------------------------------------2-----0--2-------------| 
-------------------------------------------------------------------------------| 


-------------------------------------------------------------------------------| 
-------------------------------------------------------------------------------| 
--------------------------------------9.----------------9-----7----------------| 
-------------------------------------------------------------------------------| 
--2----------------------------------------------------------------------------| 
-------------------------------------------------------------------------------| 


-----------------------------10b-----------------------------------------------| 
--12----10-12-------------------------------------------12----10-12------------| 
--11----11-11-------------------------------------------11----11-11------------| 
-------------------------------------------------------------------------------| 
-------------------------------------------------------------------------------| 
-------------------------------------------------------------------------------| 


-------------------------------------------------------------------------------| 
-------------------------------------------------------------------------------| 
--9.----------------------------------9-----------7-------------------9b-------| 
-------------------------------------------------------------------------------| 
-------------------------------------------------------------------------------| 
-------------------------------------------------------------------------------| 


-------------------------------------------------------------------------------| 
-------------------------------------------------------------------------------| 
---------------------7-----9-----------7---------------------------------------| 
---------------------------------------------9---------------------------------| 
-------------------------------------------------------------------------------| 
-------------------------------------------------------------------------------| 


-----------------------------10b-----------------------------------------------| 
--12----10-12-------------------------------------------12----10-12------------| 
--11----11-11-------------------------------------------11----11-11------------| 
-------------------------------------------------------------------------------| 
-------------------------------------------------------------------------------| 
-------------------------------------------------------------------------------| 


-------------------------------------------------------------------------------| 
-------------------------------------------------------------------------------| 
--------------9b----7-----9--7--9-----------7----------------------------------| 
-------------------------------------------------------------------------------| 
-------------------------------------------------------------------------------| 
-------------------------------------------------------------------------------| 


-------------------------------------------------------------------------------| 
-------------------------------------------------------------------------------| 
-----------------------------2L----------------2-------------------------------| 
--4b-------------------------0L----------------0-------------------------------| 
--2b----------------------------------------------------2-----0--2-------------| 
-------------------------------------------------------------------------------| 


-------------------------------------------------------------------------------| 
-------------------------------------------------------------------------------| 
--------------------------------------9.----------------9-----7----------------| 
-------------------------------------------------------------------------------| 
--2----------------------------------------------------------------------------| 
-------------------------------------------------------------------------------| 

Repeat all this.. 


Guitar 2 ( Dropped D , delay + reverb) : 

e|--14------------|----------------| 
B|--15------------|----------------| 
G|--16------------|----------------| 
D|----------------|--8-slide-------| 
A|----------------|--8-slide-------| 
E|----------------|--8-slide-------| 
		  

Full key step upFull key step up
Half key step upHalf key step up
Half key step downHalf key step down
Full key step downFull key step down
auto scroll beats size up size down change color hide chords drawings
tab show chords e-chords YouTube Clip e-chords hide all tabs e-chords go to top tab

share